Elbow - Fix Chords & Tabs

 

Fix Chords & Tabs

Elbow Chords & Tabs

Version: 1 Type: Bass Tab 0 ratings
1 star 2 stars 3 stars 4 stars 5 stars
comments

Fix Bass Tab

----------------------------------------------------------------------------
			         THE FIX - Elbow
----------------------------------------------------------------------------

Great song from "The Seldom Seen Kid", each note is played off-beat, listen to the song 
get it...

Tuning: STANDARD

Verse
G|---5--------------------------------5--------------------------------|
D|-----5--------------------------------5-------------------------5----|
A|-3-----6-5-3-5-6-2-0-2-5-3-5-6-3--3-----6-5-3-5-6-2-0-2-5-3-5-6------|
E|---------------------------------------------------------------------|

[ Tab from: http://www.guitartabs.cc/tabs/e/elbow/fix_btab.html ]
Chorus (“10”12”13”10” not 10121310)
G|------10--------------------------10--------------------------10-----|
D|---10----10------10-10121310---10----10------10-10121310---10----10--|
A|-8------------10-------------8------------10-------------8-----------|
E|------------8---------------------------8----------------------------|
				   Ending:
G|--------------------------------G|-----|
D|------10------------------------D|-----|
A|---10----10--5--5--5--5—--------A|-3---|
E|-8-----------------------3------E|-----|


Bridge (“Ahh Ahh Ahh” ect…)
G|---5-------------|
D|-----5-----------|
A|-3-----6-2-0-2-5-|
E|-----------------|


Order:
-rest-
Verse X2
Chorus
Bridge X2
Verse
Chorus
Bridge X4
-rest-
Chorus
Verse
Chorus
Bridge X8
-rest-
Chorus
Ending
Comments