Elbow - Buttons And Zips Chords & Tabs

 

Buttons And Zips Chords & Tabs

Elbow Chords & Tabs

Version: 2 Type: Tab 0 ratings
1 star 2 stars 3 stars 4 stars 5 stars
comments

Buttons And Zips Tab

Band:  Elbow
Song:  Buttons and Zips
Album: Cast of Thousands
[ Tab from: http://www.guitartabs.cc/tabs/e/elbow/buttons_and_zips_tab_ver_2.html ]
e:------------------------------------------------------||
b:------------------------------------------------------||
g:------------------------------------------------------||
d:------------------------2---2-------------------------||
a:5------3--5-5---5-5---5--------3----------------------||
e:----5-----------------------------5-5--5-5--5-5--5-5--||

Thats the main verse riff thing, which gets played millions
of times, and I haven't really got the foggiest what they play
on the chorus, but its got this chord in it:

e:-10-10------10-10-
b:-10-10------10-10-

or something.
Comments