Elbow - Asleep In The Back Chords & Tabs

 

Asleep In The Back Chords & Tabs

Elbow Chords & Tabs

Version: 1 Type: Tab 0 ratings
1 star 2 stars 3 stars 4 stars 5 stars
comments

Asleep In The Back Tab

Band Name: Elbow
Song Name: Asleep in the back
Tabbed By: Terry Sims (Masterofdarknes)
Email: Floyd_Fan89@teenspot.com

STD Tuning...


e--------------------------------------------------------|
B---0-----------0---------0-----------0------------------|
G---6--7--6-----6---------6--7--6---------------X2-------|
D---7---------------7-----7--------------7---------------|
A---0--------0---------0--0--------0---------0-----------|
E--------------------------------------------------------|
[ Tab from: http://www.guitartabs.cc/tabs/e/elbow/asleep_in_the_back_tab.html ]
e------------2----------------------------|
B---0-3-0-------3------0-3-0-----3--------|
G---0-----0------------0------0-----0-----|  X2
D-------------------0-------------------0-|
A-----------------------------------------|
E-----------------------------------------|

REPEAT

CHORUS IS....

e--2-----2-----2------2--------[-2-----------2---------------------|
B----3-----3-----3------3------[---3-----------3-------------------|
G------0-----0-----2------2 X2-[-----0--X10------2X2-----ETC....---|
D------------------------------[-----------------------------------|
A------------------------------[-----------------------------------|
E------------------------------[-----------------------------------|
Comments