Elastica - Stutter Chords & Tabs

 

Stutter Chords & Tabs

Elastica Chords & Tabs

Version: 1 Type: Bass Tab 0 ratings
1 star 2 stars 3 stars 4 stars 5 stars
comments

Stutter Bass Tab

   
Track: Stutter
Band: Elastica
Album: Elastica (1995)
Bassist: Annie Holland
Tabber: Holly The Indie Fish indie_fish@hotmail.com

I'm just correcting my first tab which had a small error in the verse but to 
be fair
the bass isn't that distinct in this track. This is a great tune but Annie 
plays it
very quickly.

Riff 1
G|----------------------------------------------------------------
D|----------------------------------------------------------------
A|----------------4-4-4-4-4-4-4-4---------------------------------
E|2-2-2-2-2-2-2-2-----------------0-0-0-0-0-0-0-0-7-7-7-7-5-5-3-3-
[ Tab from: http://www.guitartabs.cc/tabs/e/elastica/stutter_btab.html ]
Riff 2
G|-------------------------------
D|-------------------------------
A|4-4-4-4-4-4-4-4-4-4-4-4-4-4-4-4
E|-------------------------------

Riff 3
G|--------------------------------
D|--------------------------------
A|5-5-5-5-5-5-5-5-----------------
E|----------------2-2-2-2-2-2-2-2-

Riff 4
G|------------------------------------------------
D|------------------------------------------------
A|5-5-5-5-5-5-5-5-2-2-2-2-2-2-2-2-----------------
E|--------------------------------2-2-2-2-2-2-2-2-

Riff 5
G|----------------------------------------
D|----------------------------------------
A|5-5-5-5-5-5-5-5-2-2-2-2-2-2-2-2---------
E|--------------------------------2*-2/14-           * let note ring

Guitar intro
Riff 1 x 6
Riff 2 x 1
Riff 1 x 3
Riff 3 x 1
Riff 1 x 5
Riff 2 x 1
Riff 1 x 3
Riff 4 x 2
Riff 5 x 1

sorted

Comments