Elastica - Generator Chords & Tabs

 

Generator Chords & Tabs

Elastica Chords & Tabs

Version: 1 Type: Bass Tab 0 ratings
1 star 2 stars 3 stars 4 stars 5 stars
comments

Generator Bass Tab

Elastica - Generator
Submitted By: Laura
EMail: bunternelson@hotmail.com
Bass tab by Jonathan Mukukenow(j_begbie@yahoo.com)


Generator (revised)

Intro/Riff
G|-------------------------------------------------------------------------|
D|-------------------------------------------------------------------------|
A|-------------------------------------------------------------------------|
E|-2-2-2-2-2-2-2-2--10-10-10-10-10-10-10-10--6-6-6-6-6-6-6-6--3-3-3--------|
[ Tab from: http://www.guitartabs.cc/tabs/e/elastica/generator_btab.html ]
Riff 2/Verse
G|----------------------------------------------------------------------------|
D|----------------------------------------------------------------------------|
A|----------------------------------------------------------------------------| 
E|-5-5--4-5-/10--5-5--4-5-/10--5-5--4-5-/10--7-7--8-8-8-----------------------|

Riff3
G|-4-3-2-0--------------------------------------------------------------------|
D|-----------4-3-2-0----------------------------------------------------------|
A|---------------------4-3-2-0-----------------------0-1-2-3------------------|
E|-------------------------------4-3-2-0---0-1-2-3-------------(*0-0-0)-------|

Play * on the second time around.
Comments