Elastica - Connection Chords & Tabs

 

Connection Chords & Tabs

Elastica Chords & Tabs

Version: 3 Type: Tab 0 ratings
1 star 2 stars 3 stars 4 stars 5 stars
comments

Connection Tab

------------------------------------------------------------------
			     Connection - Elastica
-------------------------------------------------------------------
Tabbed by: keith

Tuning: Standard (EADGBE)

Intro 1- Play 2x, listen to the song for the beats, synthesized noise used
e|-----------e---------e-------------------------------|
B|-----------s---------s-------------------------------|
G|-----------u---------u-------------------------------|
D|-3---3-3-3-a---3-3-3-a---3-3--8-6-6--6---------------|
A|-1-0-1-1-1-p-0-1-1-1-p-0-1-1--6-4-4--4---------------|
E|-----------------------------------------------------|

Next Part Comes in With the Robotic Voice Saying Yeah
Intro 2
e|-----------------------------------------------------|
B|-----------------------------------------------------|
G|-----------------------------------------------------|
D|-3-3-3-3-3---3-3-3-3-3---3-3-3-3-3-8-8-6-6-----------|
A|-1-1-1-1-1-0-1-1-1-1-1-0-1-1-1-1-1-6-6-4-4-----------|
E|-----------------------------------------------------|

Guitar 2- Weird synthesized noise
E|----------------------|
B|----------------------|
G|-15s10-15s10----------|

Verses
One guitar plays the Intro Riff with the beat pattern
Second guitar plays Intro 2
[ Tab from: http://www.guitartabs.cc/tabs/e/elastica/connection_tab_ver_3.html ]
Pre-Chorus
e|-----------------------------------------------------|
B|-----------------------------------------------------|
G|---------------------11-10-11-10-11-10-11-10---------|
D|-4-4-4-4-4-4-4-4-4-----------------------------------|
A|-4-4-4-4-4-4-4-4-4-----------------------------------|
E|-2-2-2-2-2-2-2-2-2-----------------------------------|

Chorus- "I dont understand how a heart is a spade"
e|-----------------------------------------------------|
B|-8-8-8-8-8-8-8--10-10-10-10-10-10-10-----------------|
G|-8-8-8-8-8-8-8--10-10-10-10-10-10-10-----------------|
D|-----------------------------------------------------|
A|-----------------------------------------------------|
E|-----------------------------------------------------|

After this part
Guitar 1 plays Intro 2 
Guitar 2 plays
G|-15-13--15--13-15-repeat-------> there are pauses between the notes
then G|--15s10--15s10------------> Repeat this process until the next verse comes in
NOTE: Intro 1 is also being played

Ending, after the Chorus is played twice, play intro 1, but without the synthesized
noise, then G|--15s10--15s10--------------

End on
G--3--
D--3--
A--1--
E-----

That its, very catchy song, any problems or comments let me know, keithistheman84@hotmail.com, thanks !!!
Comments