El Tri - Todo Por El Rock N Roll Chords & Tabs

 

El Tri Chords & Tabs

Version: 1 Type: Chords 0 ratings
1 star 2 stars 3 stars 4 stars 5 stars
comments

Todo Por El Rock N Roll Chords

Power Chords:

         I                 II                  III                IV
E|----------------| |----------------| |----------------| |----------------|
B|----------------| |----------------| |----------------| |----------------|
G|----------------| |------7/8-------| |------9/10------| |-------12-------|
D|------7/8-------| |------7/8-------| |------9/10------| |-------12-------|
A|------7/8-------| |------5/6-------| |------7/8-------| |-------10-------|
E|------5/6-------| |----------------| |----------------| |----------------|

         V                  VI                 VII
E|----------------| |----------------| |----------------|
B|----------------| |----------------| |----------------|
G|----------------| |-------8--------| |-------10-------|
D|-------8--------| |-------8--------| |-------10-------|
A|-------8--------| |-------6--------| |-------8--------|
E|-------6--------| |----------------| |----------------|




Intro:

I, II, III




       I                  II
Te gustarķa verme nadando

                 III
en un charco de sangre.

       I                II
O colgado de una cuerda

                 III
sin aliento y sin aire.

       IV           VI                       VII
O cayendo lentamente   al fondo de una abismo

         IV       VI                VII
todo despanzurrado   y haciendo bizcos

        I               II           III   
Te gustarķa verme tirado   en la banqueta

        I                  II                      III
babeando sangre por la boca   y con la bragueta abierta.

           IV   VI           VII
Causando lastima   a los peatones

           IV             VI        VII
y a toda la bola de golfos   y mandilones.


      I                     II
Y todo por el Rock and Roll

           III
y todo sea por el Rock and Roll

[ Tab from: http://www.guitartabs.cc/tabs/e/el_tri/todo_por_el_rock_n_roll_crd.html ]
 VI                           V
Saca mi cruz, y clavame las estacas,

           VI                                     VII
quiero ver el autobus, que ha de llevarme al infierno.


        I                    II           III
Te gustaria verme en la calle   de la amargura

        I             II                    III
bucando algo que comer,  en el bote de la basura.

      IV           VI           VII
O pidiendo limosnas   en las esquinas,

      IV              VI                VII
o clavado en la carcel,  lavando las letrinas.


       I                   II
Y todo por el Rock and Roll

           III
y todo sea por el Rock and Roll

          I                   II
Y todo es por el Rock and Roll

           III
y todo por el Rock and Roll



GUITAR SOLO



   VI                                       V
No hay por que temer, solo me estoy desangrando.

        VI                             VII
Nena no te preocupes, solo estoy agonizando.


         I            II                       III
Te gustaria de una vez   verme 3 metros bajo tierra

           I            II               III
y que mi epitafio dijera:  Hay que bueno era.

          IV               VI               VII
Para que asi todos hablaran   de mis cualidades,

             IV            VI                     VII
aunque en el fondo me odien   por decirles su verdades


       I                   II
Y todo por el Rock and Roll

         III
todo sea por el Rock and Roll

        I                 II
Todo es por Rock and Roll

     III
Todo por Rock and Roll



     I                   II
Todo por el Rock and Roll

        III
Todo sea por el Rock and Roll

        I                   II
Todo es por el Rock and Roll

III, I, II (x....)


   ___
 @-\ /-@
 @-| |-@
 @-| |-@
   \_/
   |_|
   |_|
   |_|
   |_|
   |_|
   |_|
  _|_|_
 /(|_|)\
 \  _  /
  \|_|/
  / Y \
 / / \ \
 \/   \ \
       \/ 
Comments