El Tri - Nostalgia Chords & Tabs

 

El Tri Chords & Tabs

Version: 1 Type: Tab 0 ratings
1 star 2 stars 3 stars 4 stars 5 stars
comments

Nostalgia Tab

   
|--------------|-------------------|
|--------------|-------------------|
|--------------|-------------------|
|2-------------|-2-4---------2-0-2-|
|------3-1-3-6-|-----3-1-0-1-------|
|--1-0---------|-------------------|

|-------------------|---------------------------|
|-------------------|---------------------------|
|-------------------|---------------------------|
|-------------------|----------------------10-9-|
|-------------------|--------------11-10--------|
|-5-6-8^10-12-13-12-|-8-10-12-10-8--------------|

        Dm
Es la nostalgia
 Am             
de fin de siglo
       Dm               Am
y se vuelven a oir las rolas
         Dm    Am
de los Beatles
     A#                  F
de Elvis, de Janis, de Hendrix
     Gm             A7
de Morrison y de Lennon



                  Dm       A#
Y es que es la nostalgia
            C 
de fin de siglo
           Dm                 A#             C
y todo el mundo quisiera el tiempo poder regresar
      
y revivir los recuerdos y los buenos tiempos
          Dm         A#
porque recordar es vivir
          A7
y todos queremos vivir mas

[ Tab from: http://www.guitartabs.cc/tabs/e/el_tri/nostalgia_tab.html ]
:
         Dm
Es la nostalgia
 Am          Dm
de fin de siglo
             Dm                Am
se vuelve a poner de moda la ideologia
     Dm        Am
del Che Guevara
         A#                       F
y todos quieren ser rebeldes y contestatarios
    Gm             A7         
anarquistas y revolucionarios
                 Dm      A#
Y es que es la nostalgia
            C 
de fin de siglo
           Dm                 A#             C
y todo el mundo quisiera el tiempo poder regresar
      
y revivir los recuerdos y los buenos tiempos
          Dm         A#
porque recordar es vivir
          A7
y todos queremos vivir mas




          Dm  Am
Es la nostalgia 

            Dm
de fin de siglo
  Am     Dm                   Am
y los hijos se rebelan contra los padres
          Dm                          Am
como los padres lo hicieron con los abuelos
              A#                   F
con la misma actitud, las mismas fachas
             Gm                     A7
las mismas causas y hasta la misma musica
Comments