El Otro Yo - Viajero Chords & Tabs

 

Viajero Chords & Tabs

El Otro Yo Chords & Tabs

Version: 1 Type: Tab

Viajero Tab

tabs de viajero, el otro yo

por lito gomez   lito_violero@hotmail.com

                 http://www.fotolog.com/alpedisimo
                 http://www.fotolog.com/waltershito
                 http://www.fotolog.com/paoss_87

entonacion standart

EADGBe


|----------------------------------------------- |
|----------------------------------------------- |
|----------------------------------------------- |
|---0-0-0-0-4-4-4-4-5-5-5-5-7-7-5-5-5-4-0--- --- | X4
|--3-3-3-3-3-5-5-5-5-5-5-5-5-5---5-5---3-------- |
|----------------------------------------------- |
[ Tab from: http://www.guitartabs.cc/tabs/e/el_otro_yo/viajero_tab.html ]
|-------------------------------------------|
|-------------------------------------------|
|-------------------------------------------|
|-5-5-5-5-5-5-5-5-5-5-5-5-5-5-5-5-----------|
|-5-5-5-5-5-5-5-5-5-5-5-5-5-5-5-5-----------|
|-0-2-3-3-0-2-3-3-0-2-3-3-0-2-3-3-----------|


|-------------------------------------------|
|-------------------------------------------|
|-5-5-5-5-5-X-7-7-7-7-7---------------------|
|-5-5-5-5-5-X-7-7-7-7-7---------------------|
|-3-3-0-3-3-X-5-5-X-5-5---------------------|
|-------------------------------------------|


y despues la completan
en la parte del puente
con A5 y con C5

y despues repite

una cosa mas facil ...

bueno

se lo dedico a wal