El Dorado - Jazz Song Chords & Tabs

 

Jazz Song Chords & Tabs

El Dorado Chords & Tabs

Version: 1 Type: Bass Tab 0 ratings
1 star 2 stars 3 stars 4 stars 5 stars
comments

Jazz Song Bass Tab

          band: el dorado
          
          song: jazz song
          
          riff
          
          g-------------------------------------0-2-3-2-0-------0-2-3-2-0-
          d-----0-2-3-2-0-------0-2-3-2-0-----2-----------2---2----------2
          a---2-----------2---2-----------2-3---------------3-------------
          e-3---------------3---------------------------------------------
          
          chorus
          
          g-----------
          d-----------
          a----22-33-5
          e-33--------
          
          ending
          
          g-------------------
          d-------------------
          a----22-33-5~~~~~3--
          e-33---------------3
          
          *order*
          
          intro   guitar only
          riff    4x
          chorus  4x
          riff    4x
          chorus  3x
          ending  1x
[ Tab from: http://www.guitartabs.cc/tabs/e/el_dorado/jazz_song_btab.html ]
Comments