Ekoostik Hookah - Ohio Grown Chords & Tabs

 

Ohio Grown Chords & Tabs

Ekoostik Hookah Chords & Tabs

Version: 1 Type: Tab 0 ratings
1 star 2 stars 3 stars 4 stars 5 stars
comments

Ohio Grown Tab

EKOOSTIK HOOKAH - Ohio Grown. Written by Dave Katz.

Not exactly the way Dave plays it, but hey, what can ya do? Remember to use this as a guide, LISTEN to the song to get the rhythm right. NO LYRICS?! I don't know why but they don't allow it. Also, no solo. Steve Sweney is amazing, he can do things I cannot fathom, even on my brightest day. Questions/Criticism/Comments? ekoostiks@hookahheads.com

Standard Tuning

INTRO
e|--2--2--3--2--2--3-|
b|--3--3--3--3--3--3-|
g|--2--2--0--2--2--0-|
d|--------0--------0-|
a|--------2--------2-|
e|--------3--------3-|

VERSE
		   (LICK ONE)	
e|--2-2-2-2--3--0-------------2-3-2|
b|--3-3-3-3--3--2-------------3-3-3|
g|--2-2-2-2--0--2-------------2-0-2|
d|-----------0--2----------0----0--|
a|-----------2--0--2-0---0------2--|
e|-----------3--0------3--------3--|

[ Tab from: http://www.guitartabs.cc/tabs/e/ekoostik_hookah/ohio_grown_tab.html ]
e|--2--2--2--2---------2-|
b|--3--3--3--3-------2-3-|
g|--2--2--2--2----0--2-2-|
d|----------------0--2---| Mess with this to get the right sound.
a|----------------2--0---|
e|----------------3------|

e|--------------------------------------------|
b|--------------------------------------------|
g|-------------------------0--0--2--0---------|
d|--2-0---------------0--2-------------2--0---|
a|------2-0------0--2-----------------------3-|
e|----------3--3------------------------------|

Repeat for Verses. 

JAM

A--G--A--D


e|-----------------------------3-|
b|-----------------------------3-|
g|-------------0--0------------0-|
d|---------0h2-------2p0-------0-|
a|-----0h2---------------2p0---2-|
e|--3--------------------------3-|

End of Jam
A--G--D


LISTEN TO THE SONG.. can't believe they don't allow lyrics on guitar.cc
Comments