Ekoostik Hookah - Float Chords & Tabs

 

Float Chords & Tabs

Ekoostik Hookah Chords & Tabs

Version: 1 Type: Tab 0 ratings
1 star 2 stars 3 stars 4 stars 5 stars
comments

Float Tab

   
----------------------------------------------------------------------------
			     Float - Ekoostik Hookah (Ed Mcgee)
----------------------------------------------------------------------------
Tabbed by: Ryan Baker

Email: ohiogrown05@netzero.net

Tuning: Standard

 
 Lead Riff:
e|--------------|
B|-5-7-5--------|
G|-5-7-5-7/\p5--|
D|--------------| X 4
A|--------------|
E|--------------|


e|-5--5--5------------------------10--10--10------------------------------|
B|-5--4--3------------------------10---9---8------------------------------|
G|-5--4--3------------------------10---9---8-- Repeat lead riff x 2-------|
D|-5--4--3  Play Lead riff x 2-----0---0---0------------------------------|
A|-0--0--0----------------------------------------------------------------|
E|------------------------------------------------------------------------|
   I've been down by the river...
[ Tab from: http://www.guitartabs.cc/tabs/e/ekoostik_hookah/float_tab.html ]
e|-4-----5-----6-----7----------------------------------------------------|
B|-3-----4-----5-----5----------------------------------------------------|
G|-4-----5-----6-----7--Repeat Lead Riff X 4------------------------------|
D|-2-----3-----4-----6----------------------------------------------------|
A|------------------------------------------------------------------------|
E|------------------------------------------------------------------------|
  Long after the stars were all out...


  Repeat above for all verses, except blues ending.  It goes as followed..
e|------------------------------------------------------------------------|
B|------------------------------------------------------------------------|
G|----------------------------------7-7-9-9-7-7-9-9-9-9-11-11-9-9-11-11---|
D|--7-7-9-9-7-7-9-9-5-5-7-7-5-5-7-7-7-7-9-9-7-7-9-9-9-9-11-11-9-9-11-11---|
A|--7-7-9-9-7-7-9-9-5-5-7-7-5-5-7-7---------------------------------------|
E|------------------------------------------------------------------------|
  Well let me tell you all about her people...



     This is a wonderful song, definately one of Ed's best.  Good Luck!
     Email me with any requests or complaints!


| /  slide up
| \  slide down
| h  hammer-on
| p  pull-off
| ~  vibrato
| +  harmonic
| x  Mute note
============================================================================
Comments