Ekoostik Hookah - Caribou Chords & Tabs

 

Caribou Chords & Tabs

Ekoostik Hookah Chords & Tabs

Version: 1 Type: Tab 0 ratings
1 star 2 stars 3 stars 4 stars 5 stars
comments

Caribou Tab

   
----------------------------------------------------------------------------
			     Caribou - Ekoostik Hookah (Eric Lanese)
----------------------------------------------------------------------------
Tabbed by: Ryan Baker

Email: ohiogrown05@netzero.net

Tuning: Standard

 This is my favorite Hookah song!  Thanks to "The Geese"

 Intro:

e|----------------------------------------------------------------|
B|-----0h1-3-3/5-3--------------1-3p1-----------------1-----------|
G|-0h2-------------2h4-2--2h4p2-------3p1---------------3p0-------|
D|----------------------------------------3p2p0--------------3p0--|
A|----------------------------------------------3p0---------------|
E|--------------------------------------------------3------------3|

e|3------------------2-------------0-----------------0------------|
B|3------------------3-------------1-----------------1------------|
G|0------------------2-------------0-----------------2------------|
D|0------------------0-------------2-----------------2------------| X 6
A|2--------------------------------3-----------------0------------|
E|3---------------------------------------------------------------|
  Up high in boulder Co. there's a place that can be found.

[ Tab from: http://www.guitartabs.cc/tabs/e/ekoostik_hookah/caribou_tab.html ]
e|3----------2--------0------------2-------------0-----------------2-|
B|3----------3--------1------------3-------------1-----------------3-|
G|0----------2--------2------------2-------------0-----------------2-|
D|0----------0--------2------------0-------------2-----------------0-| X 2
A|2-------------------0--------------------------3-------------------|
E|3------------------------------------------------------------------|
 And I still remember watching the sunrise paint smiles across the ceiling


e|--------0------------2---------------3----------------0----2------0---|
B|--------0------------3---------------3----------------1----3------1---|
G|--------0------------2---------------0----------------2----4------0---|
D|--------2------------0---------------0----------------2----4------2---|
A|--------2----------------------------2----------------0----2------3---|
E|--------0----------------------------3--------------------------------|
  That it can't be too soon before i'm back beneath the moon in between


e|--------------2-----------------3-----------0----------------------0----|
B|--------------3-----------------3-----------1----------------------1----|
G|--------------2-------Riff 1----0-----------2---Play Riff 1 X3-----0----|
D|--------------0-----------------0-----------2----------------------2----|
A|--------------------------------2-----3-2-0-0----------------------3----|
E|--------------------------------3---------------------------------------|
  the green and blue... of CARIBOU!!!


 
  	Just repeat for other verses!  Check out Dubba.com for complete 
        Ekoostik Hookah lyrics.


| /  slide up
| \  slide down
| h  hammer-on
| p  pull-off
| ~  vibrato
| +  harmonic
| x  Mute note
============================================================================
Comments