Ekolu - Honestly Chords & Tabs

 

Honestly Chords & Tabs

Ekolu Chords & Tabs

Version: 1 Type: Tab 0 ratings
1 star 2 stars 3 stars 4 stars 5 stars
comments

Honestly Tab

   
-----------------------------------------------------------------------------
			     Ekolu - Honestly
-----------------------------------------------------------------------------


Artist: Ekolu
Title: Honestly
Tabbed by: RAiN
Email: rainier_nofuente@yahoo.com
Date: October 1, 2004

=============================================================================

Hey Everyone!  This song has to be one of the most beautiful songs I've ever 
heard in a really long time.  Everything from the melody to the lyrics;
Brilliant!  This song is by this awesome Hawaiian group called Ekolu.
I've been playing this song for a while, and I thought I'd share it with all
of you.  Please note that I have only been playing the guitar for less than 
a year and this is actually my very first song I ever transcribed, so please 
be easy on me; I'm still a beginner.  I tried my best to tab this by ear, 
so I'm pretty sure that there's probably some mistakes here and there. 
Anyways, I honestly hope you enjoy playing this as much as I enjoyed 
tabbing and sharing this beautiful song.  Please feel free to correct any of 
my mistakes.  This is RAiN.  HAVE FUN!

=============================================================================

Ekolu - Honestly

Tuning: Standard

Intro:
e|-------5-----------5---------|--------------------------------------------|
B|-------7----7------7---7-7---|-------7-----------7------------------------|
G|-------7----7------7---7-7---|-------7-----7-----7--7-7-------------------|
D|----0-------0----------------|-------------7--------7-7-------------------|
A|-----------------------------|--------------------------------------------|
E|-----------------------------|----7--------7------------------------------|
           ^                             ^
e|-------0-----------0---------|-------0--------------0---------------------|
B|-------3----3------3---3-3---|-------3------2h3p2---2--2-2----------------|
G|------------4----------4-4---|--------------2----------2-2----------------|
D|------------0----------0-0---|--------------------------------------------|
A|-----------------------------|----0---------0-----------------------------|
E|----3-------3----------------|--------------------------------------------|
           ^                             ^ 
e|-------0-----------0---------|-------2-----------2------------------------|
B|-------3----3------3---3-3---|-------3-----3-----3--3-3-------------------|
G|------------2----------2-2---|-------------2--------2-2-------------------|
D|----0-------0----------0-0---|--------------------------------------------|
A|-----------------------------|----2--------2------------------------------|
E|-----------------------------|--------------------------------------------|
           ^                             ^ 
e|-------0-----------0------------------------------------------------------|
B|-------3----3------3---3-3----2h3--2--------------------------------------|
G|------------4----------4-4----2----2--------------------------------------|
D|------------0----------0-0------------------------------------------------|
A|------------------------------0-------------------------------------------|
E|----3---------------------------------------------------------------------|
           ^

Verse 1 & 2:
e|-------5-----------5---------|--------------------------------------------|
B|-------7----7------7---7-7---|-------7-----------7------------------------|
G|-------7----7------7---7-7---|-------7-----7-----7--7-7-------------------|
D|----0-------0----------------|-------------7--------7-7-------------------|
A|-----------------------------|--------------------------------------------|
E|-----------------------------|----7--------7------------------------------|
           ^                             ^

e|-------0-----------0---------|-------0-------------0----------------------|
B|-------3----2------2---2-2---|-------3-----2h3p2---2--2-2-----------------|
G|-------4----2----------2-2---|-------2-----2----------2-2-----------------|
D|-----------------------------|----0---------------------------------------|
A|------------0----------------|-------------0------------------------------|
E|----3------------------------|--------------------------------------------|
           ^                             ^

e|-------0-----------0---------|-------2-----------2------------------------|
B|-------3----3------3---3-3---|-------3-----3-----3--3-3-------------------|
G|------------2----------2-2---|-------------2--------2-2-------------------|
D|----0-------0----------0-0---|--------------------------------------------|
A|-----------------------------|----2--------2------------------------------|
E|-----------------------------|--------------------------------------------|
           ^                             ^ 

e|-------0-----------0---------|-------0-----------0------------------------|
B|-------3----2------2---2-2---|-------3-----1-----1--1-1-------------------|
G|-------4----2----------2-2---|-------2-----2--------2-2-------------------|
D|-----------------------------|----0--------0------------------------------|
A|------------0----------------|--------------------------------------------|
E|----3------------------------|--------------------------------------------|
           ^                             ^

Chorus: 
e|-------0-----------0---------|-------0-----------0----------------------|  
B|-------3----2------2---2-2---|-------3-----3-----3--3-3-------------------|
G|-------4----2----------2-2---|-------2-----2--------2-2----------------(X3)
D|-----------------------------|----0--------0------------------------------|
A|------------0----------------|--------------------------------------------|
E|----3------------------------|--------------------------------------------|
           ^                             ^

e|-------0-----------0---------|-------0-------------0----------------------|
B|-------3----3------3---3-3---|-------3-----2h3p2---2--2-2-----------------|
G|-------4----4----------4-4---|-------------2----------2-2-----------------|
D|-----------------------------|--------------------------------------------|
A|-----------------------------|----0--------0------------------------------|
E|----3-------3----------------|--------------------------------------------|
           ^                             ^ 

e|-------0-----------0---------|-------2-----------2------------------------|
B|-------3----3------3---3-3---|-------3-----3-----3--3-3-------------------|
G|------------2----------2-2---|-------------2--------2-2-------------------|
D|----0-------0----------0-0---|--------------------------------------------|
A|-----------------------------|----2--------2------------------------------|
E|-----------------------------|--------------------------------------------|
           ^                             ^ 

e|-------0-----------0------------------------------------------------------|
B|-------3----3------3---3-3----2h3--2--------------------------------------|
G|------------4----------4-4----2----2--------------------------------------|
D|-----------------------0-0------------------------------------------------|
A|------------------------------0-------------------------------------------|
E|----3-------3-------------------------------------------------------------|


^^^^^Play Verse Again!^^^^^

[ Tab from: http://www.guitartabs.cc/tabs/e/ekolu/honestly_tab.html ]
Chorus:
e|-------0-----------0---------|-------0-----------0----------------------|  
B|-------3----2------2---2-2---|-------3-----3-----3--3-3-------------------|
G|-------4----2----------2-2---|-------2-----2--------2-2----------------(X3)
D|-----------------------------|----0--------0------------------------------|
A|------------0----------------|--------------------------------------------|
E|----3------------------------|--------------------------------------------|
           ^                             ^

e|-------0-----------0---------|-------0-------------0----------------------|
B|-------3----3------3---3-3---|-------3-----2h3p2---2--2-2-----------------|
G|-------4----4----------4-4---|-------------2----------2-2-----------------|
D|-----------------------------|--------------------------------------------|
A|-----------------------------|----0--------0------------------------------|
E|----3-------3----------------|--------------------------------------------|
           ^                             ^ 


Bridge Intro:
e|-------0-----------0---------------0------------0-------------------------|
B|-------3----3------3---3-3---------3-------3----3---3-3-------------------|
G|------------2----------2-2-----------------2--------2-2-------------------|
D|----0-------0----------0-0----0------------0--------0-0-------------------|
A|--------------------------------------------------------------------------|
E|--------------------------------------------------------------------------|
           ^                             ^

Bridge:
e|-------2-----------2---------------2------------2-------------------------|
B|-------2-----2-----2---2-2---------2-------2----2---2-2-------------------|
G|-------------3---------3-3-----------------3--------3-3-------------------|
D|--------------------------------------------------------------------------|
A|--------------------------------------------------------------------------|
E|----2--------2----------------2------------2------------------------------|
           ^                             ^

e|-------3-----------3---------------3------------3-------------------------|
B|-------3-----3-----3---3-3---------3-------3----3---3-3-------------------|
G|-------------4---------4-4-----------------4--------4-4-------------------|
D|--------------------------------------------------------------------------|
A|--------------------------------------------------------------------------|
E|----3--------3----------------3------------3------------------------------|
           ^                             ^

e|-------2-----------2---------------2------------2-------------------------|
B|-------2-----2-----2---2-2---------2-------2----2---2-2-------------------|
G|-------------3---------3-3-----------------3--------3-3-------------------|
D|--------------------------------------------------------------------------|
A|--------------------------------------------------------------------------|
E|----2--------2----------------2------------2------------------------------|
           ^                             ^

e|-------3-----------3---------------3------------3-------------------------|
B|-------3-----3-----3---3-3---------3-------3----3---3-3-------------------|
G|-------------4---------4-4-----------------4--------4-4-------------------|
D|--------------------------------------------------------------------------|
A|--------------------------------------------------------------------------|
E|----3--------3----------------3------------3------------------------------|
           ^                             ^

e|-------0-----------0---------------0----------------0---------------------|
B|-------2-----2-----2---2-2---------2-------2h3p2----2---2-2---------------|
G|-------------2---------2-2-----------------2------------2-2---------------|
D|--------------------------------------------------------------------------|
A|----0--------0----------------0------------0------------------------------|
E|--------------------------------------------------------------------------|
           ^                             ^

Chorus:
e|-------0-----------0---------|-------0-----------0----------------------|  
B|-------3----2------2---2-2---|-------3-----3-----3--3-3-------------------|
G|-------4----2----------2-2---|-------2-----2--------2-2----------------(X3)
D|-----------------------------|----0--------0------------------------------|
A|------------0----------------|--------------------------------------------|
E|----3------------------------|--------------------------------------------|
           ^                             ^

e|-------0-----------0---------|-------0-------------0----------------------|
B|-------3----3------3---3-3---|-------3-----2h3p2---2--2-2-----------------|
G|-------4----4----------4-4---|-------------2----------2-2-----------------|
D|-----------------------------|--------------------------------------------|
A|-----------------------------|----0--------0------------------------------|
E|----3-------3----------------|--------------------------------------------|
           ^                             ^ 

Fade Out:  x2
e|-------0-----------0---------|-------2-----------2------------------------|
B|-------3----3------3---3-3---|-------3-----3-----3--3-3-------------------|
G|------------2----------2-2---|-------------2--------2-2-------------------|
D|----0-------0----------0-0---|--------------------------------------------|
A|-----------------------------|----2--------2------------------------------|
E|-----------------------------|--------------------------------------------|
           ^                             ^ 

e|-------0-----------0---------|-------0---------------0--------------------|
B|-------3----3------3---3-3---|-------3-----2h3p2-----2--2-2---------------|
G|------------4----------4-4---|-------------2------------2-2---------------|
D|------------0----------0-0---|--------------------------------------------|
A|-----------------------------|--------------------------------------------|
E|----3-------3----------------|----0--------0------------------------------|
           ^                             ^ 

End:
e|-------0-----------0---------|-------2-----------2------------------------|
B|-------3----3------3---3-3---|-------3-----3-----3--3-3-------------------|
G|------------2----------2-2---|-------------2--------2-2-------------------|
D|----0-------0----------0-0---|--------------------------------------------|
A|-----------------------------|----2--------2------------------------------|
E|-----------------------------|--------------------------------------------|
           ^                             ^ 

e|-------0-----------0---------|---------------------------------------(17)-|
B|-------3----3------3---3-3---|-------3---3---2-----------5---5---5---(19)-|
G|------------4----------4-4---|-----2---2---2---2-------7---7---7--7--(19)-|
D|------------0----------0-0---|---0-------------------7-----------------0--|
A|-----------------------------|---------------------5----------------------|
E|----3-------3----------------|--------------------------------------------|



| h  hammer-on
| p  pull-off
| ^  slight tap
============================================================================

I love you, I need you,
To hold me every night.
And when you're feeling lonely,
Girl I'll be by your side.

I'll tell you that I love you so,
I'll hold you and never let you go.
Girl tell me your love belongs to me,
And I love you honestly.

I want you to know that,
I'm always here for you.
Through your bad times, your saddest times
I'll help you see it through.

I'll comfort you when you're alone,
I'll give you love like you never known.
Girl tell me your love belongs to me,
And I love you honestly.

(Bridge)
There will be times,
When life will seem unfair,
But you can run to me
'Cause u know girl I will be there.

I'll comfort you when you're alone,
I'll give you love like you never known.
Girl tell me your love belongs to me,
And I love you honestly.

(x3) 
And I love you honestly...
Comments