Eisenhauer Bill - Life Goes On Chords & Tabs

 

Life Goes On Chords & Tabs

Eisenhauer Bill Chords & Tabs

Version: 1 Type: Tab 2 ratings
1 star 2 stars 3 stars 4 stars 5 stars
comments

Life Goes On Tab

   
   Intro         Eaug5                                            Part two
                 no3rd Cadd9                                  Aadd9
  Gsus2  Dsus2                                                sus4      G A ABDE    csus2  G
e----3---h53-------------------3-3---h53--------------]P    -------------------------------3-]
b----3-------3---------3-3-3---3-3-------3-------3-3-3]l t  ---3-3-3-3--0-2-----------3------]
g----0---------0---------------0-0---------0----------]a i  ---4-4-4-4--0-2-----------0------]
d-------------------2--2-2-2------------------2--2-2-2]y m  ---2-2-2-2--0-2---0h2-----0------]
a-------------------3--3-3-3------------------3--3-3-3]  e  ----------------0h2----3--3----2-]
E-----------------------------------------------------]2 s  -------------------------------3-]
  PART 3                                                       /\/\/\/\
             
   G G G G   Amsus4 Cadd9  ABDE
e--3-3-3-3------------------------]
b-------------3------3------------]
g-------------2------0------------]PLAY 3 TIMES
d-------------0------2-------0h2--]
a--2-2-2-2----3------3-----0h2----]PLAY PART 2 
E--3-3-3-3------------------------]  1 time
              /\/\/\


G           Cadd9          G                Cadd9
Two hearts, beating as one,maybe it's crazy,butlook what was done. 
[ Tab from: http://www.guitartabs.cc/tabs/e/eisenhauer_bill/life_goes_on_tab.html ]
G                         csus2           
Debatting on holding back,for the right time to come.

     Part 4

   Aadd9
   sus4    G A  ABDE    csus2 
------------------------------l---]
--3-3-3-3--0-2------------3---e---]
--4-4-4-4--0-2------------o---t---] life goes on
--2-2-2-2--0-2----0h2-----0---r---]
----------------0h2----3--3---i---]
------------------------------n---]
  /\/\/\/\                    g

 PLAY INTRO 
 then play Part 2

 G                Cadd9
 looking for love,is like a three dollar bill,


 G                  Cadd9
 Running long track,when it's all up hill.


 G                 Cadd9
 I try to complete,the golds set out.

  ====================================

  Play part 4 Then Intro & then part 2

  ====================================

 G               Cadd9
 From our dreams,to reality,


 G                        Cadd9
 Not holding nothing back,so it seems,


 G                    Cadd9
 playing make beleave,the fun is done.

 =====================================
 
 Play part 4 then intro & then part 2

 =====================================
 
 End:         Eaug5

 Gsus2 Dsus2  no 3rd  EF#GBDGBG
 e-3-3-h53--------------------3---]
 b-3-3-----3-------3---------0----]
 g-0-0-------0--------------0-----]
 d--------------2--2-------0------]
 a--------------3--3------2-------]
 E--------------------0-23--------]


   /\/\/\/\  up & down strumming

                                    Life goes on
                                BY Bill Eisenhauer
Comments