Eighties Matchbox B-line Disaster - Whack Of Shit Chords & Tabs

 

Whack Of Shit Chords & Tabs

Eighties Matchbox B-line Disaster Chords & Tabs

Version: 1 Type: Tab 0 ratings
1 star 2 stars 3 stars 4 stars 5 stars
comments

Whack Of Shit Tab

   
main riff/verse

e|---------------|
B|---------------|
G|---------------|
D|---------------|
A|---------------|
E|3p0-00-3p0-5p0-|

chorous: please make up your own rythms its to hard to tab.

|--------------|------------|----------------|
|--times 2-----|------------|----------------|
|--------------|------------|1st bar times 1-|
|-105-10-105-2-|-5--------7-|----------------|
|-105-10-105-2-|-5--------7-|----------------|
|-7-3-7--7-3-0-|-3--------5-|----------------|

verse

chorous

verse+lead bit
[ Tab from: http://www.guitartabs.cc/tabs/e/eighties_matchbox_b_line_disaster/whack_of_shit_tab.html ]
|-------------------------------------------------------|
|-------------------------------------------------------|
|-------------TIMES TWO---------------------------------|
|-------------------------------------------------------|
|-7-/10-7-/10-7-/10-7-/10-7--6-/9-6-/9-6-/9-6-/9-6-9-p7-|
|--------------------------7----------------------------|

GUITAR 2 GOES LIKE THIS: * = same note D= down stroke U= up stroke
 D UDUDU D UDUDU-D-UDUDU-D-UDUDU
|--------------------------------|
|--------------------------------|
|--------------------------------|
|2-22222-2-22222-10*****-10*****-|
|2-22222-2-22222-10*****-10*****-|
|0-00000-0-00000-7-77777-7-77777-|
i think thats palm muted but im not sure
thats all the way through that lead bit

chorous: but this time it has a change in it:

|--------------|------------|-----------------|
|--times 2-----|------------|-----------------|
|--------------|------------|-----------------|
|-105-10-105-2-|-5--------7-|-14-1014-1410-14-|
|-105-10-105-2-|-5--------7-|-14-1014-1410-14-|
|-7-3-7--7-3-0-|-3--------5-|-12-7-12-12-7-12-|

chorous to the end
   
\m/><\m/
Comments