Eighties Matchbox B-line Disaster - Celebrate Your Mother Chords & Tabs

 

Celebrate Your Mother Chords & Tabs

Eighties Matchbox B-line Disaster Chords & Tabs

Version: 1 Type: Bass Tab 0 ratings
1 star 2 stars 3 stars 4 stars 5 stars
comments

Celebrate Your Mother Bass Tab

   
 ------------------------------------------------------------------
	celebrate your mother - the 80's matchbox b-line disaster
--------------------------------------------------------------------

i think this is right but im not sure. but it still sounds good
(and ive tried it live) and it works.

intro

G|-------------------------------------------------------|
D|-------------------------------------------------------|
A|-------------------------------------------------------|
E|-0-0-0-0-3-0-0-0-0-0-0-0-0-0-0-0-0-0-0-3-3-3-3-2-2-2-2-|

verse one: the timing isnt perfect but hey. i wrote cord where the lead plays

(OR YOU CAN CARRY ON PLAYING THE INTRO

G|-D------------------D---------D------------D----D-|
D|-R------------------R---------R------------R----R-| TIMES 2
A|-O------------------O---------O------------O----O-|
E|-C-0000000000000000-C-3-33333-C-2-22222----C-33-C-|

wierd lead bit 1

G|------------------------------------------------------------------|
D|------------------------------------------------------------------|
A|-------LEAD BIT-----------------------LEAD BIT--------------------|
E|-2-3--------------33333333-22222222-------------33333333-22222222-|

verse 2

G|-D------------------D---------D---------|
D|-R------------------R---------R---------| TIMES 2
A|-O------------------O---------O---------|
E|-C-0000000000000000-C-3-33333-C-2-22222-|

wierd lead bit 2
[ Tab from: http://www.guitartabs.cc/tabs/e/eighties_matchbox_b_line_disaster/celebrate_your_mother_btab.html ]
G|------------------------------------------------------------------------
D|------------------------------------------------------------------------
A|------------------------------------------------------------------------
E|-0-0-0-0-0-0-0-0-0-000-33333333-22222222-0-0-0-0-0-0-0-0-0-000-33333333-

----------|
----------|
----------|
-22222222-|

verse 3

G|-------------------------------------------------------------|
D|-------------------------------------------------------------|
A|-------------------------------------------------------------|
E|-0-0-0-0-3-0-0-0-0-0-0-0-0-0-0-0-0-0-0-0-0-0-0-0-0-0-0-0-3-2-|
|====================palm muted================================|

wierd lead bit 3

G|------------------------------------------------------------------|
D|------------------------------------------------------------------|
A|-------LEAD BIT-----------------------LEAD BIT--------------------|
E|-2-3--------------33333333-22222222-------------33333333-22222222-|

verse 4

G|-------------------------------------------------------------|
D|-------------------------------------------------------------|
A|-------------------------------------------------------------|
E|-0-0-0-0-3-0-0-0-0-0-0-0-0-0-0-0-0-0-0-0-0-0-0-0-0-0-0-0-3-2-|

long bit

G|------------------------------------------------------|
D|--0--0--0--2--2-----0--0--0--0--2--2--2--5--5--4--4---|I THINK ITS TIMES 2
A|-2-2--2--2--2--2---2-2--2--2--2--2--2--2--3--3--3--3--|
E|0---0--0--0--0--0-0---0--0--0--0--0--0--0--0--0--0--0-|

THEN:

wierd lead bit 2

verse 1

wierd lead bit 2
Comments