Eighteen Visions - You Broke Like Glass Chords & Tabs

 

You Broke Like Glass Chords & Tabs

Eighteen Visions Chords & Tabs

Version: 1 Type: Tab 0 ratings
1 star 2 stars 3 stars 4 stars 5 stars
comments

You Broke Like Glass Tab

   
Song-You broke like glass.
Band-Eighteen Visions
Album-Vanity
Tabber-mark
Tuneing- B F# B E Ab C# 
Note-whole song has distortion.

Ok i didnt write all the strumming or corect strumming patters, it wolud take
to long, so listen 2 the song and fighure it out from there.

INTRO 

C#-------------------------------------
Ab-------------------------------------
E--------------------------------------
B--3-3-3-0-0-3-3-3-0-0-0-3-3-4-3-3-0-0-
F#-3-3-3-0-0-3-3-3-0-0-0-3-3-4-3-3-0-0-
B--3-3-3-0-0-3-3-3-0-0-0-3-3-4-3-3-0-0-


VERSE

C#-------------------------------------
Ab-------------------------------------
E--------------------------------------
B--------------------------------------
F#-0-0-0-1-0-0-0-0-1-3-0-0-0-1-0-0-1-3-
B--0-0-0-1-0-0-0-0-1-3-0-0-0-1-0-0-1-3-
     ..      .....      ....   ...    (dots mean 2 palm mute)

PRE VERSE/PRE CHORUS

C#-------------------------------------
Ab-------------------------------------
E--------------------------------------
B--3-3-3-0-0-3-3-3-0-0-0-3-3-4-3-3-0-0-
F#-3-3-3-0-0-3-3-3-0-0-0-3-3-4-3-3-0-0-
B--3-3-3-0-0-3-3-3-0-0-0-3-3-4-3-3-0-0-

Back to verse

Play Pre Chorus then wen ur done do this its right after it, listen close 2 song

C#-------------------------------------
Ab-------------------------------------
E--------------------------------------
B--------------------------------------
F#----3-2------------------------------
B---0-----3-2-1-0-1-0------------------

Chorus

C#-------------------------------------
Ab-------------------------------------
E--------------------------------------
B--0-0-0-0-0-0-0-0-0---0-0-0-0-0-1-1---
F#-0-0-0-0-0-0-0-0-0-^-0-0-0-0-0-1-1-^-
B--0-0-0-0-0-0-0-0-0-4-0-0-0-0-0-1-1-4-  (when ^ is above number, vibrate it)
                 ... *           ... *   (the * means pinch harmonic)


Pre Verse
[ Tab from: http://www.guitartabs.cc/tabs/e/eighteen_visions/you_broke_like_glass_tab.html ]
C#------------------------------------
Ab------------------------------------
E-------------------------------------
B--3-X-0-X-0-3-X-0-X-0-3-0-X-0-0-X-3~~
F#-3-X-0-X-0-3-X-0-X-0-3-0-X-0-0-X-3~~
B--3-X-0-X-0-3-X-0-X-0-3-0-X-0-0-X-3~~


Verse(do u feel fine now?)
C#------------------------------------
Ab------------------------------------
E-------------------------------------
B-------------------------------------
F#-------------1-3-0---------------1--
B--0-0-0-0-0-0-1-3-0-0-0-0-0-0-0-0-1--
   ...........       .............



OTHER VERSE (DO YOU FEEL FINE NOW?!?!) 
C#-------------------------------------
Ab-------------------------------------
E--------------------------------------
B--------------------------------------
F#-1-0-0-1-0-0-1-0-0-1-0-1-3-1-0-0-1-3- 
B--1-0-0-1-0-0-1-0-0-1-0-1-3-1-0-0-1-3-
   .....................     .........


C#------------------------------------
Ab------------------------------------
E-------------------------------------
B--3-X-0-X-0-3-X-0-X-0-3-0-X-0-0-X-3~~
F#-3-X-0-X-0-3-X-0-X-0-3-0-X-0-0-X-3~~
B--3-X-0-X-0-3-X-0-X-0-3-0-X-0-0-X-3~~



C#-------------------------------------
Ab-------------------------------------
E--------------------------------------
B--------------------------------------
F#----3-2------------------------------
B---0-----3-2-1-0-1-0------------------

Chorus

C#-------------------------------------
Ab-------------------------------------
E--------------------------------------
B--0-0-0-0-0-0-0-0-0---0-0-0-0-0-1-1---
F#-0-0-0-0-0-0-0-0-0-^-0-0-0-0-0-1-1-^-
B--0-0-0-0-0-0-0-0-0-4-0-0-0-0-0-1-1-4-  (when ^ is above number, vibrate it)
                 ... *           ... *   (the * means pinch harmonic)

At the verry end of the chours wen the heavy bass comes in play a very heay plam
mute on the chourus and dont do the pich harmonci on 4 cuz play it a 
normal bar chord and thats it.



ending note

C#---------
Ab---------
E----------
B--0-0-0-1-
F#-0-0-0-1-
B--0-0-0-1-
   .....


questions, coments? email me at skeaminskater@aol.com  RoCk On 
i think this is like 95.5% corect
Comments