Eighteen Visions - Waiting For The Heavens Chords & Tabs

 

Waiting For The Heavens Chords & Tabs

Eighteen Visions Chords & Tabs

Version: 3 Type: Tab 0 ratings
1 star 2 stars 3 stars 4 stars 5 stars
comments

Waiting For The Heavens Tab

   
Artist:Eighteen Visions
Song:Waiting For The Heavens
Album:Obsession
Tabbed by:mattstatic
Email:skater_rocker2003@hotmail.com

Tunning: Drop B low 2 high
         B F# B E G# C# 

Intro riff                          (not 100% on this bit)
|--------------------------------||-----------------------|
|----5---7-7----5---5-5----5--7--||---5--5-5-5--5--5-5-5--|
|---4-4---4----4-4---4----4--4---||--2-2-------2-2--------|
|--------------------------------||-----------------------|
|--------------------------------||-----------------------|
|--------------------------------||-----------------------|

Intro chords
|--0-----0---|
|--5--7--5---|
|--4--5--2---|
|------------|
|------------|
|------------|

Intro riff 2
|-----------0---|
|-----------0---|
|---------------|
|--2-1-0-2------|
|--2-1-0-2------|
|--2-1-0-2------|

Intro riff 3 (pick scrape)
|--------------------------------|
|--------------------------------|
|--------------------------------|
|--0--2-2--1-2-1-0--0-0-0-0-0-0--|
|--0--2-2--1-2-1-0--0-0-0-0-0-0--|
|--0--2-2--1-2-1-0--0-0-0-0-0-0--|
                  Pm...........
[ Tab from: http://www.guitartabs.cc/tabs/e/eighteen_visions/waiting_for_the_heavens_tab_ver_3.html ]
Verse
|--------------------------------||--------------------------------|
|--------------------------------||--------------------------------|
|--------------------------------||--------------------------------|
|--0--2-2--1-2-1-0--0-0-0-0-0-0--||--0--2-2--1-2-1-0--0-0-0-0-0-0--|
|--0--2-2--1-2-1-0--0-0-0-0-0-0--||--0--2-2--1-2-1-0--0-0-0-0-0-0--|
|--0--2-2--1-2-1-0--0-0-0-0-0-0--||--0--2-2--1-2-1-0--0-0-0-0-0-0--|
         pm....................                      pm...  .....

|------------------|
|------------------|
|------------------|
|------------------|
|------------------| (not 100%)
|--0-3-0--8-7-5-0--|

Chorus (listen 4 strummin pattern)
|------------|
|--5--8--3---|
|--4--7--2---|
|--2--5--0---|
|--2--5--0---|
|--2--5--0---|

Interlude riff 1
|--------------------------------|
|--------------------------------|
|--------------------------------|
|--0--2-2--1-2-1-0--0-0-0-0-0-0--|
|--0--2-2--1-2-1-0--0-0-0-0-0-0--|
|--0--2-2--1-2-1-0--0-0-0-0-0-0--|
         pm....................   

Interlude riff 2
|------------------------|
|------------------------|
|------------------------|
|--0--2----2-1--5~-0-5---|
|--0--2----2-1--5~-0-5---|
|--0--2-2~-2-1--5~-0-5---|

think thats all of it.enjoy n e queries just email me
EIGHTEEN VISIONS RULE!!!!!!!!!! :D
Comments