Eighteen Visions - Waiting For The Heavens Chords & Tabs

 

Waiting For The Heavens Chords & Tabs

Eighteen Visions Chords & Tabs

Version: 1 Type: Tab 0 ratings
1 star 2 stars 3 stars 4 stars 5 stars
comments

Waiting For The Heavens Tab

Waiting for the Heavens by Eighteen Visions
Tabbed by Danny Schiz
Email: kazuyajinjun@aol.com

For this tab, I'm just writing the parts. There's some extra stuff that
the guitarist adds, so try to figure them out. I'm pretty sure this may
be correct. Even if it's not...it sound close!

E|5-7----------------------------------------------------------|
B|0-6-5--------------------------------------------------------|
G|6-5-6--------------------------------------------------------|
D|7-0-7--------------------------------------------------------|
A|-------------------------------------------------------------|
E|-------------------------------------------------------------|

E|-------------------------------------------------------------|
B|---9---9--7--------------------------------------------------|
G|797797-79---------------------------------------------------|
D|-------------------------------------------------------------|
A|-------------------------------------------------------------|
E|-------------------------------------------------------------|

After that, just do the chorus riff 2, but strum differently
[ Tab from: http://www.guitartabs.cc/tabs/e/eighteen_visions/waiting_for_the_heavens_tab.html ]
Main Riff
E|-------------------------------------------------------------|
B|-------------------------------------------------------------|
G|-------------------------------------------------------------|
D|565-333-1-00000000-------------------------------------------|
A|565-333-1-00000000-------------------------------------------|
E|565-333-1-00000000-------------------------------------------|
            ********
Verse
E|-------------------------------------------------------------|
B|-------------------------------------------------------------|
G|-------------------------------------------------------------|
D|565---000-0-00-00--------------------------------------------|
A|565--000-0-00-00--------------------------------------------|
E|565---000-0-00-00--------------------------------------------|
	*** * ** **
E|-------------------------------------------------------------|
B|-------------------------------------------------------------|
G|-------------------------------------------------------------|
D|565-333-1-00000000-565-333-1--------7-5----------------------|
A|565-333-1-00000000-565-333-1-----5-7-------------------------|
E|565-333-1-00000000-565-333-1-5-7-----------------------------|
            ********
Repeat intro

Chrous Riff 1
E|6----6-----4----4--------------------------------------------|
B|6---6------4---4---------------------------------------------|
G|6--6-------4--4----------------------------------------------|
D|6-6--------4-4-----------------------------------------------|
A|6---------4-------------------------------------------------|
E|4----------2-------------------------------------------------|

Chorus Riff 2
E|6-----8-----4-----5------------------------------------------|
B|6-----8-----4-----5------------------------------------------|
G|6-x12-8-x12-4-x12-5-x12--------------------------------------|
D|6-----8-----4-----5------------------------------------------|
A|6-----8-----4-----5------------------------------------------|
E|4-----6-----2-----3------------------------------------------|

Repeat verse and chorus. Then, just play the verse riff until song ends.
Comments