Eighteen Visions - Said And Done Chords & Tabs

 

Said And Done Chords & Tabs

Eighteen Visions Chords & Tabs

Version: 1 Type: Tab 0 ratings
1 star 2 stars 3 stars 4 stars 5 stars
comments

Said And Done Tab

Intro/Verse (Listen song for strumming and timimg)
  
e----x-x-x-x-x-x-x-x-x-x-x-x-x-x-x-x----] 
B----x-x-x-x-x-x-x-x-x-x-x-x-x-x-x-x----]
G----2-2-2-2-2-2-2-2-3-3-3-3-3-3-3-3----]
D----4-4-4-4-4-4-4-4-4-4-4-4-4-4-4-4----]
A----4-4-4-4-4-4-4-4-4-4-4-4-4-4-4-4----]
E----2-2-2-2-2-2-2-2-2-2-2-2-2-2-2-2----]   

Chorus  

e----x-x-x-x-x-x-x-x-x-x-x-x-x-x-x-x-x-x-x-x-x-x-x-x----]
B----x-x-x-x-x-x-x-x-x-x-x-x-x-x-x-x-x-x-x-x-x-x-x-x----]
G----7-7-7-7-7-7-6-6-6-6-6-6-4-4-4-4-4-4-8-8-8-8-8-8----]
D----7-7-7-7-7-7-7-7-7-7-7-7-5-5-5-5-5-5-9-9-9-9-9-9----]
A----5-5-5-5-5-5-7-7-7-7-7-7-5-5-5-5-5-5-9-9-9-9-9-9----]
E----0-0-0-0-0-0-5-5-5-5-5-5-3-3-3-3-3-3-7-7-7-7-7-7----] 
[ Tab from: http://www.guitartabs.cc/tabs/e/eighteen_visions/said_and_done_tab.html ]
e----x-x-x-x-x-x-x-x-x-x-x-x-x-x-x-x-x-x-x-x-x-x-x-x----]
B----x-x-x-x-x-x-x-x-x-x-x-x-x-x-x-x-x-x-x-x-x-x-x-x----]
G----7-7-7-7-7-7-6-6-6-6-6-6-4-4-4-4-4-4-3-3-3-3-3-3----]
D----7-7-7-7-7-7-7-7-7-7-7-7-5-5-5-5-5-5-4-4-4-4-4-4----]
A----5-5-5-5-5-5-7-7-7-7-7-7-5-5-5-5-5-5-4-4-4-4-4-4----]
E----0-0-0-0-0-0-5-5-5-5-5-5-3-3-3-3-3-3-2-2-2-2-2-2----]    

Bridge  

e----x-x-x-x-x-x-x-x-x-x-x-x-x-x-x-x-x-x-x-x----]
B----x-x-x-x-x-x-x-x-x-x-x-x-x-x-x-x-x-x-x-x----]
G----2-2-2-2-3-3-3-3-6-6-6-6-4-4-4-4-3-3-3-3----]
D----4-4-4-4-4-4-4-4-7-7-7-7-5-5-5-5-4-4-4-4----]
A----4-4-4-4-4-4-4-4-7-7-7-7-5-5-5-5-4-4-4-4----]
E----2-2-2-2-2-2-2-2-5-5-5-5-3-3-3-3-2-2-2-2----]  

Song Structure (Listen to the song to figure out how many times to play each riff)   

Intro/Verse 
Chorus 
Intro/Verse 
Chorus 
Bridge 
Chorus 
Intro/Verse
Comments