Eighteen Visions - Lost In A Dream Chords & Tabs

 

Lost In A Dream Chords & Tabs

Eighteen Visions Chords & Tabs

Version: 1 Type: Tab 0 ratings
1 star 2 stars 3 stars 4 stars 5 stars
comments

Lost In A Dream Tab

-----------------------------------------------------------------------------
                  Lost in a Dream (intro)- Eighteen Visions
-----------------------------------------------------------------------------
Tabbed by:Tim Semega
Email:smegs_2007@hotmail.com

Tuning:drop D (but its only the intro and sounds fine in regular)
[ Tab from: http://www.guitartabs.cc/tabs/e/eighteen_visions/lost_in_a_dream_tab.html ]
e--6-------------------------6------------------------------------|
B-----7---9--7----6--7----------7---9--7----6--7-------------6--7-|
G-------6-------6--------8--------6-------6--------8---6--8-------|
D-----------------------------------------------------------------|
A-----------------------------------------------------------------|
E-----------------------------------------------------------------|


e--6-------------------------------------------------------------|
B-----7---9--7----6--7--9--7--6----------------------------------|
G-------6-------6-----------------8------------------------------|
D----------------------------------------------------------------|
A----------------------------------------------------------------|
E----------------------------------------------------------------|
Comments