Eight Legs - Wear That Shirt Chords & Tabs

 

Wear That Shirt Chords & Tabs

Eight Legs Chords & Tabs

Version: 1 Type: Bass Tab

Wear That Shirt Bass Tab

   
----------------------------------------------------------------------------
                            Wear That Shirt  Eight Legs
----------------------------------------------------------------------------

http://www.eightlegs.co.uk/
http://www.myspace.com/eightlegs

Tabbed By : Waswares

Tuning: Standard

Intro:

G|----|
D|----|
A|-7--|
E|----|

Chorus:

G|--------------------------------------|
D|--------------------------------------|
A|-7775-----7775-----7775-----77777777--|
E|------5-7------5-7------5-7-----------|

Verse:

G|---------------------------------------|
D|---------------------------------------|
A|-44-4-----------77-7-44-4--------------|
E|------44-4-55-5-----------44-4-55-5-7--|

Chorus:
[ Tab from: http://www.guitartabs.cc/tabs/e/eight_legs/wear_that_shirt_btab.html ]
G|--------------------------------------|
D|--------------------------------------|
A|-7775-----7775-----7775-----77777777--|
E|------5-7------5-7------5-7-----------|

Verse:

G|---------------------------------------|
D|---------------------------------------|
A|-44-4-----------77-7-44-4--------------|
E|------44-4-55-5-----------44-4-55-5-7--|

Chorus:

G|--------------------------------------|
D|--------------------------------------|
A|-7775-----7775-----7775-----77777777--|
E|------5-7------5-7------5-7-----------|

Bridge:

G|-------------------------------|
D|-------------------------------|
A|-4--------7--4-----------------|
E|----4--5--------4-5-77777777---|

Chorus:

G|--------------------------------------|
D|--------------------------------------|
A|-7775-----7775-----7775-----77777777--|
E|------5-7------5-7------5-7-----------|

| /  slide up
| \  slide down
| h  hammer-on
| p  pull-off
| ~  vibrato
| +  harmonic
| x  Mute note
============================================================================