Eight Legs - Stay Cool Chords & Tabs

 

Stay Cool Chords & Tabs

Eight Legs Chords & Tabs

Version: 1 Type: Bass Tab

Stay Cool Bass Tab

   
----------------------------------------------------------------------------
                             Stay Cool  Eight Legs
----------------------------------------------------------------------------

http://www.eightlegs.co.uk/
http://www.myspace.com/eightlegs


Tabbed By : Waswares
 
Tuning: Standard

Intro:

G|-------------------------------------------------------------------|
D|-------------------------------------------------------------------|
A|-------------------------------------------------------------------|
E|-5-5-3-3-00-3-0-3-0--5-5-3-3-0-0-3-0-3-0--5-5-8-8-00-3-0-3-0--5--|

Verse:

G|-------------------------------------------------------------------|
D|-------------------------------------------------------------------|
A|-------------------------------------------------------------------|
E|-5-5-3-3-00-3-0-3-0--5-5-3-3-0-0-3-0-3-0--5-5-8-8-00-3-0-3-0--5--|

Chorus:

G|-------------------------------------------------------------------------|
D|-------------------------------------------------------------------------|
A|-33333333--------33333333--------33333333-----------------------------7--|
E|---------55555555--------55555555--------55555555---55555-0-55555-0------|


Verse:

G|-------------------------------------------------------------------|
D|-------------------------------------------------------------------|
A|-------------------------------------------------------------------|
E|-5-5-3-3-00-3-0-3-0--5-5-3-3-0-0-3-0-3-0--5-5-8-8-00-3-0-3-0--5--|

Chorus:
[ Tab from: http://www.guitartabs.cc/tabs/e/eight_legs/stay_cool_btab.html ]
G|---------------------------------------------------------------------|
D|---------------------------------------------------------------------|
A|-33333333--------33333333--------33333333----------------------------|
E|---------55555555--------55555555--------55555555---55555-0-55555-0--|

G|-------------------------------------------------------------|
D|-------------------------------------------------------------|
A|-7-----------------------------------------------------------|
E|----3--5--8888888888888888--55555-0-55555-0-55555-0-55555-0--|

Solo:

G|-----------------------------------------|
D|-----------------------------------------|
A|-----------------------------------------|
E|-550-5550-5550-5550-5550-5550-5550-5550--|

Verse:

G|-------------------------------------------------------------------------|
D|-------------------------------------------------------------------------|
A|-------------------------------------------------------------------------|
E|-5-5-3-3-00-3-0-3-0--5-5-3-3-0-0-3-0-3-0--5-5-8-8-00-3-0-3-0--555555555|

Chorus:

G|---------------------------------------------------|
D|---------------------------------------------------|
A|-33333333--------33333333--------33333333----------|
E|---------55555555--------55555555--------55555555--|

G|---------------------------------------------------|
D|---------------------------------------------------|
A|-33333333--------33333333--------33333333----------|
E|---------55555555--------55555555--------55555555--|

G|-----------------------------|
D|-----------------------------|
A|-----------------------------|
E|-55555-0-55555-0-55555-0--5--|


| /  slide up
| \  slide down
| h  hammer-on
| p  pull-off
| ~  vibrato
| +  harmonic
| x  Mute note
============================================================================