Eight Legs - Staring At The Sea Chords & Tabs

 

Staring At The Sea Chords & Tabs

Eight Legs Chords & Tabs

Version: 1 Type: Bass Tab

Staring At The Sea Bass Tab

   
----------------------------------------------------------------------------
                        Staring at the Sea - Eight Legs
----------------------------------------------------------------------------

http://www.eightlegs.co.uk/
http://www.myspace.com/eightlegs

Tabbed By : Waswares
 
Tuning: Standard

Intro:

G|-------------------------------------|
D|-------------------------------------|
A|----------79-9-9-9-------------------|
E|-25-5-5-5----------25-5-5-5--22--00--|

Verse

G|-------------------------------------|
D|-------------------------------------|
A|----------79-9-9-9-------------------|
E|-25-5-5-5----------25-5-5-5--22--00--|

Chorus:

G|-----------------------------|
D|-----------------------------|
A|-----------------------------|
E|555-02-022552-555-02-022552--|
[ Tab from: http://www.guitartabs.cc/tabs/e/eight_legs/staring_at_the_sea_btab.html ]
G|-------------------------------------------------|
D|-------------------------------------------------|
A|-99999999----99999999----9999999----99999999-----|
E|---------55-2--------55-2-------55-2-------55-2--|

Verse

G|-------------------------------------|
D|-------------7-7---------------------|
A|----------79----9--------------------|
E|-25-5-5-5----------25-5-5-5--22--00--|

Chorus:

G|-----------------------------|
D|-----------------------------|
A|-----------------------------|
E|555-02-022552-555-02-022552--|

G|-------------------------------------------------|
D|-------------------------------------------------|
A|-99999999----99999999----9999999----99999999-----|
E|---------55-2--------55-2-------55-2-------55-2--|

G|-------------------|
D|-------------------|
A|-99999997----------|
E|----------22~~~14--|

Verse:

G|------------------------------------|
D|------------------------------------|
A|----------97979797------------------|
E|-52525252----------52525252--22-00--|

| /  slide up
| \  slide down
| h  hammer-on
| p  pull-off
| ~  vibrato
| +  harmonic
| x  Mute note
============================================================================