Egan Jeff - Sandwiches Chords & Tabs

 

Sandwiches Chords & Tabs

Egan Jeff Chords & Tabs

Version: 1 Type: Tab 0 ratings
1 star 2 stars 3 stars 4 stars 5 stars
comments

Sandwiches Tab

Song: Sandwiches
Artist: Jeff Egan
Tabed By: Jeff Egan

Hello. This is my song that I wrote. I showed it to some people 
and they said it was pretty good, so i decided to put it up on here.
So here it is.
Just e-mail me if you want a sound file of it. 
eganknight@hotmail.com

Standerd tuning
EADGBE

Light distortion
[ Tab from: http://www.guitartabs.cc/tabs/e/egan_jeff/sandwiches_tab.html ]
Intro
*------------------3-3-3-3-3-3--3-3--2-2-2-2-2-----*
*-2-2-2-/-3-3-3----3-3-3-3-3-3--3-3--3-3-3-3-3-----*
*-2-2-2-/-2-2-2-x2-------------------2-2-2-2-2-----*
*-------------------------------2-2----------------*
*------------------2-2-2-2-2-2--3-3----------------*
*------------------3-3-3-3-3-3---------------------*

Verse
*-------------3-----2-------*
*-------3-----3-----3-x3----*
*-4-----4-----0-----2-------*
*-4-x3--4-x3--0-x4----------*
*-2-----2-----2-------------*
*-------------3-------------*

Intro 3x then Verse 2x, then Intro once more. It's not much right now,
but if you add drums to it, it sounds amazing!!

Oh yeah this is'nt timed properly, so if u want to know the timing,
just e-mail me (above) and i will send you a sound wave of how I play it.
Later.

Comments