Eels - Wooden Nickels Chords & Tabs

 

Wooden Nickels Chords & Tabs

Eels Chords & Tabs

Version: 1 Type: Tab 0 ratings
1 star 2 stars 3 stars 4 stars 5 stars
comments

Wooden Nickels Tab

   
--------------------------------------------------------------------
			     Wooden Nickels - Eels
----------------------------------------------------------------------
Tabbed by:Mike Lemanski
Email: AccidentalReality@Hotmail.com

Tuning:Standard (Normal Tuning)Capo 7th

Hey People, Heres a cool chilled out tune by E.
The song is played with a Capo On the 7th fret
The Tab is in relation to the capo.

          C         G         F          open
e|-----------------------------------------------------------------|
B|----------------------------1----------0-------------------------|
G|--------0---------0-------2---2------0---0-----------------------|
D|------2---2-----0---0---3----------0-----------------------------|x6
A|----3---------2--------------------------------------------------|
E|-----------------------------------------------------------------|
       went down by the old...  

                F                   Am              D
e|-------------1-------1---------------------------------2---------|
B|---------------1---------1---------------1-----------3----3------|
G|---------2--------2--------2----------2-----2------2-------------|
D|-------3---------------------------2-----------------------------|
A|-----------------------------------------------------------------|
E|-----------------------------------------------------------------|
        And you may not think much of me now...
[ Tab from: http://www.guitartabs.cc/tabs/e/eels/wooden_nickels_tab.html ]
                   F               Am      G
e|-----------------1----------------0------3--3--3-------------------|
B|---------------1---1--------------1------3--3--3-------------------|
G|-------------2-------2---2--------2------0--0--0-------------------|
D|-----------3-----------3----------2------0--0--0-------------------|
A|----------------------------------0------2-p0-h2-------------------|
E|-----------------------------------------3--3--3-------------------|
       But I think so damn much of you
   

    CHORUS

          C         G         F          open
e|-----------------------------------------------------------------|
B|----------------------------1---------0--------------------------|
G|--------0---------0-------2---2---------0------------------------|
D|------2---2-----0---0---3----------0-----------------------------|
A|----3---------2--------------------------------------------------|
E|-----------------------------------------------------------------|
     Don't Take any wooden nickels....


          C         G         F          open
e|-----------------------------------------------------------------|
B|----------------------------1----------0-------------------------|
G|--------0---------0-----------2----------0-----------------------|
D|------2---2-----0---0-----3-----3---0----------------------------|
A|----3---------2--------------------------------------------------|
E|-----------------------------------------------------------------|
       When you sell Your soul...

          C         G         F          open
e|-----------------------------------------------------------------|
B|----------------------------1---------0--------------------------|
G|--------0---------0-------2---2---------0------------------------|
D|------2---2-----0---0---3----------0-----------------------------|
A|----3---------2--------------------------------------------------|
E|-----------------------------------------------------------------|
         A Devil...


You can pretty Much Get the Idea. Theres no point me tabbing the
rest as i'd just be repeating myself. It's pretty straight 
foward.
Thankyou For reading and playing the tab.

| /  slide up
| \  slide down
| h  hammer-on
| p  pull-off
| ~  vibrato
| +  harmonic
| x  Mute note
=======================================================================
Comments