Eels - Saturday Morning Chords & Tabs

 

Saturday Morning Chords & Tabs

Eels Chords & Tabs

Version: 1 Type: Tab 0 ratings
1 star 2 stars 3 stars 4 stars 5 stars
comments

Saturday Morning Tab

------------------------  Saturday Morning - Eels-------------

Tabbed by: MeloZ

Email: melozl@yahoo.it


e|---0--0----0--0------------------|
B|---0--0----0--0------------------|
G|---1--1----1--1------------------|
D|---2--2----2--2------------------|
A|---2--2----2--2------------------|
E|---------------------------------|

[ Tab from: http://www.guitartabs.cc/tabs/e/eels/saturday_morning_tab.html ]
e|---2--2--------------------------|
B|---3--3--------------------------|
G|---2--2--------------------------|
D|---------------------------------|
A|---------------------------------|
E|---------------------------------|


e|---0--0--0-----------------------|
B|---3--3--3-----------------------|
G|---3--3--3-----------------------|
D|---3--3--3-----------------------|
A|---------------------------------|
E|---------------------------------|


e|---------------------------------|
B|---4--4----4--4------------------|
G|---4--4----4--4------------------|
D|---4--4----4--4------------------|
A|---2--2----2--2------------------|
E|---------------------------------|
Comments