Eels - Mr Es Beautiful Blues Chords & Tabs

 

Mr Es Beautiful Blues Chords & Tabs

Eels Chords & Tabs

Version: 7 Type: Bass Tab 0 ratings
1 star 2 stars 3 stars 4 stars 5 stars
comments

Mr Es Beautiful Blues Bass Tab

   
Song: Mr E's beautiful blues
Band: Eels
Album: Daisy's of the Galaxy
Tuning: E A D G
Tabbed:  Dominick (djf_vanvlodrop@hotmail.com)

Comments:
I took the first version by Daniel as a starting point, which was pretty good, but in my
opinion not qute accurate enough. I listened to the track and came up with the following
tab, which sounds pretty much perfect to me... I tried(!) to indicate the timing by the
number of dashes, the '^' means that you need to let it ring briefly
[ Tab from: http://www.guitartabs.cc/tabs/e/eels/mr_es_beautiful_blues_btab_ver_7.html ]
This is played all throughout the song, except for about halfway where he playes it
higher

G[---|------------------------------|------------------------------]
D[---|---------2^-------4-----2-----|---------2^-------4-----2-----]
A[---|---2---3----3>5-5---5>3---3---|---2---3----3>5-5---5>3---3---]
E[-3-|-3---3----------------------3-|-3---3----------------------3-]


Then the higher part, this is played only once;

G[----------------9--------------11--------------9-----]
D[-----9------10-------10>12-12------12>10---10-----10-]
A[-10-----10-------------------------------------------]
E[-----------------------------------------------------]

^= let ring
>= slide
Comments