Eels - Lone Wolf Chords & Tabs

 

Lone Wolf Chords & Tabs

Eels Chords & Tabs

Version: 2 Type: Tab 0 ratings
1 star 2 stars 3 stars 4 stars 5 stars
comments

Lone Wolf Tab

   
----------------------------------------------------------------------------
			     Lone Wolf - Eels
----------------------------------------------------------------------------
Tabbed by: Anton Petersson	
Email:antonpetersson1@hotmail.com

Tuning:E-A-D-G-B-E

INTRO

e|-----------------------------------------------------------------------|
B|-----------------------------------------------------------------------|
G|-4-4s7-7---------4-4s7-7-----------------------------------------------|
D|-4-4s7-7-5-5s7-7-4-4s7-7-5-5-5-5-7-7-7-7-------------------------------|
A|-2-2s5-5-5-5s7-7-2-2s5-5-5-5-5-5-7-7-7-7-------------------------------|
E|---------3-3s5-5---------3-5-3-3-5-5-5-5-------------------------------|
[ Tab from: http://www.guitartabs.cc/tabs/e/eels/lone_wolf_tab_ver_2.html ]
e|-----------------------------------------------------------------------|
B|-----------------------------------------------------------------------|
G|-4-4s7-7---------4-4s7-7-----------------------------------------------|
D|-4-4s7-7-5-5s7-7-4-4s7-7-5-5s7-7-9-9-7-7-5-5-4-4-2-2-2-2-4-4-4-4-------|
A|-2-2s5-5-5-5s7-7-2-2s5-5-5-5s7-7-9-9-7-7-5-5-4-4-2-2-2-2-4-4-4-4-------|
E|---------3-3s5-5---------3-3s5-5-7-7-5-5-3-3-2-2-0-0-0-0-2-2-2-2-------|
   I am a lone wolf...          ...I feel fine I..     ...I am a lone wolf
e|-----------------------------------------------------------------------|
B|-----------------------------------------------------------------------|
G|-4-4s7-7---------4-4s7-7-----------------------------------------------|
D|-4-4s7-7-5-5s7-7-4-4s7-7-5-5-5-5-7-7-7-7-------------------------------|
A|-2-2s5-5-5-5s7-7-2-2s5-5-5-5-5-5-7-7-7-7-------------------------------|
E|---------3-3s5-5---------3-5-3-3-5-5-5-5-------------------------------|
               I am a lone wolf...
e|-----------------------------------------------------------------------|
B|-----------------------------------------------------------------------|
G|-4-4s7-7---------4-4s7-7-----------------------------------------------|
D|-4-4s7-7-5-5s7-7-4-4s7-7-5-5s7-7-9-9-7-7-5-5-4-4-2-2-2-2-4-4-4-4-------|
A|-2-2s5-5-5-5s7-7-2-2s5-5-5-5s7-7-9-9-7-7-5-5-4-4-2-2-2-2-4-4-4-4-------|
E|---------3-3s5-5---------3-3s5-5-7-7-5-5-3-3-2-2-0-0-0-0-2-2-2-2-------|
   Got my cares...         ...i'll take it down...     ... I am a lone wolf 
e|-----------------------------------------------------------------------|
B|-----------------------------------------------------------------------|
G|-4-4s7-7---------4-4s7-7-----------------------------------------------|
D|-4-4s7-7-5-5s7-7-4-4s7-7-5-5s7-7-9-9-7-7-5-5-4-4-2-2-2-2-4-4-4-4-------|
A|-2-2s5-5-5-5s7-7-2-2s5-5-5-5s7-7-9-9-7-7-5-5-4-4-2-2-2-2-4-4-4-4-------|
E|---------3-3s5-5---------3-3s5-5-7-7-5-5-3-3-2-2-0-0-0-0-2-2-2-2-------|
   
e|-----------------------------------------------------------------------|
B|-----------------------------------------------------------------------|
G|-4-4s7-7---------4-4s7-7-----------------------------------------------|
D|-4-4s7-7-5-5s7-7-4-4s7-7-5-5s7-7-9-9-7-7-5-5-4-4-2-2-2-2-4-4-4-4-------|
A|-2-2s5-5-5-5s7-7-2-2s5-5-5-5s7-7-9-9-7-7-5-5-4-4-2-2-2-2-4-4-4-4-------|
E|---------3-3s5-5---------3-3s5-5-7-7-5-5-3-3-2-2-0-0-0-0-2-2-2-2-------|
   I am a lone wolf....             ...that people...  ...I am a lone wolf
e|-----------------------------------------------------------------------|
B|-----------------------------------------------------------------------|
G|-4-4s7-7---------4-4s7-7-----------------------------------------------|
D|-4-4s7-7-5-5s7-7-4-4s7-7-5-5-5-5-7-7-7-7-------------------------------|
A|-2-2s5-5-5-5s7-7-2-2s5-5-5-5-5-5-7-7-7-7-------------------------------|
E|---------3-3s5-5---------3-5-3-3-5-5-5-5-------------------------------|
        I am a lone wolf... 
e|-----------------------------------------------------------------------|
B|-----------------------------------------------------------------------|
G|-4-4s7-7---------4-4s7-7-----------------------------------------------|
D|-4-4s7-7-5-5s7-7-4-4s7-7-5-5s7-7-9-9-7-7-5-5-4-4-2-2-2-2-4-4-4-4-------|
A|-2-2s5-5-5-5s7-7-2-2s5-5-5-5s7-7-9-9-7-7-5-5-4-4-2-2-2-2-4-4-4-4-------|
E|---------3-3s5-5---------3-3s5-5-7-7-5-5-3-3-2-2-0-0-0-0-2-2-2-2-------|
   I am..a lone wolf...         ...needs to get...     ... I am a lone wolf
e|-----------------------------------------------------------------------|
B|-----------------------------------------------------------------------|
G|-4-4s7-7---------4-4s7-7---------4-4s7-7---------4-4s7-7---------------|X3
D|-4-4s7-7-5-5s7-7-4-4s7-7-5-5s7-7-4-4s7-7-5-5s7-7-4-4s7-7-5-5s7-7-------|
A|-2-2s5-5-5-5s7-7-2-2s5-5-5-5s7-7-2-2s5-5-5-5s7-7-2-2s5-5-5-5s7-7-------|
E|---------3-3s5-5---------3-3s5-5---------3-3s5-5---------3-3s5-5-------|

Please send comments and other stuffs to my e-mail
Comments