Eels - Grace Kelly Blues Chords & Tabs

 

Grace Kelly Blues Chords & Tabs

Eels Chords & Tabs

Version: 1 Type: Tab

Grace Kelly Blues Tab

   
----------------------------------------------------------------------------
		         GRACE KELLY BLUES - The Eels
                          off 'Daisies of the Galaxy'
----------------------------------------------------------------------------
Tabbed by:T.J.

Tuning: Standard with capo on 5th fret, which is imperative - a few songs of
this album are done with a capo in this position

all positions relative to the capo
[ Tab from: http://www.guitartabs.cc/tabs/e/eels/grace_kelly_blues_tab.html ]
VERSES:
        F              Dmin         A#                 C 
e|------0-------0-------0-----------1------------------3---------|
B|------1-------1-------1-----------1------------------3---------|
G|------0-------0-------2-----------2------------------0---------|
D|------2-------0-------2-----------3------------------0---------|
A|---3--3---2---2---0---0-----------3------------------2---------|
E|-------------------------------1--1--------------3---3---------|
The  cut-   rate    mind walkin  through the dirty streets.....

SUB-CHORUS
      A#                 C     Amin     C
e|----1------------------3-----0--------3------------|
B|----1------------------3-----0--------3------------|
G|----2------------------0-----0--------0------------|
D|----3------------------0-----2--------0------------|
A|----3------------------2-----2--------2------------|
E|-1--1---------------3--3--0--0-----3--3------------|
      Sun melting the fake     smile away

and so on and so forth....
MUST USE CAPO