Edwyn Collins - Never Met A Girl Like You Before Chords & Tabs

 

Never Met A Girl Like You Before Chords & Tabs

Edwyn Collins Chords & Tabs

Version: 1 Type: Tab 0 ratings
1 star 2 stars 3 stars 4 stars 5 stars
comments

Never Met A Girl Like You Before Tab

   
-------------------------------------------------------------------------------
         Never Met a Girl Like You Before - Edwyn Collins
-------------------------------------------------------------------------------

By:Shadewake............ Shadwake@hotmail.com, any corrections welcome

b= bend.
[ Tab from: http://www.guitartabs.cc/tabs/e/edwyn_collins/never_met_a_girl_like_you_before_tab.html ]
e|---------------------------------------------------------------------------|
B|---------------------------------------10b---8-----------------------------|
G|-------8---10--10b--8--------------8---------------------------------------|
D|--10-------------------10------10------------------------------------------|
A|---------------------------------------------------------------------------|
E|---------------------------------------------------------------------------|

e|---------------------------------------------------------------------------|
B|---------------------------------------------------------------------------|
G|-------8---10--10b--8-----------------8------------------------------------|
D|--10-------------------10------10-10-----8--10-----------------------------|
A|---------------------------------------------------------------------------|
E|---------------------------------------------------------------------------|

Thats the main bit any way.... have fun.
===============================================================================
Comments