Edwin - Trippin Chords & Tabs

 

Trippin Chords & Tabs

Edwin Chords & Tabs

Version: 1 Type: Tab 0 ratings
1 star 2 stars 3 stars 4 stars 5 stars
comments

Trippin Tab

Trippin 

   Main Riff 
   E------------------------------------ 
   B------3------3---------1------3----- 
   G------2------2---------0------2----- 
   D----------------------------0---0--- 
   A-----------2---0--0----------------- 
   E--0--------------------------------- 
[ Tab from: http://www.guitartabs.cc/tabs/e/edwin/trippin_tab.html ]
   Chorus 
   E------------------------------------------------- 
   B------------------------------------------------- 
   G-----------5----5--5--5--3--3--3--5----5--5--5--- 
   D--2--2--2--5----3--3--3--1--1--1--3----3--3--3--- 
   A--2--2--2--3----3--3--3--1--1--1--3----3--3--3--- 
   E--0--0--0---------------------------------------- 

   Bridge 
   E------------------------------ 
   B------------------------------ 
   G---3--3--3--3---5--5--5--5---- 
   D---1--1--1--1---3--3--3--3---- 
   A---1--1--1--1---3--3--3--3---- 
   E------------------------------ 




   tabbed by j.s.l. 
Comments