Edvard Grieg - Morgen Stemning Chords & Tabs

 

Morgen Stemning Chords & Tabs

Edvard Grieg Chords & Tabs

Version: 1 Type: Tab 0 ratings
1 star 2 stars 3 stars 4 stars 5 stars
comments

Morgen Stemning Tab

-------------------------Guitar tab morgen stemning-----------------------------


this could be a great guitar solo. this is a norwegian clasic originaly by edvard grieg
This is also my first Tab

Morgen stemning Tab by Johan Peter Kraugerud




[ Tab from: http://www.guitartabs.cc/tabs/e/edvard_grieg/morgen_stemning_tab.html ]
e|--7-----------------7--------------------7-----7--9-----9--7---------|
h|-----9--7-----7--9-----9--7-----7-9-7-9-----9--------9--------9--7---|
g|-----------9-----------------9--------------------------------------9|
d|---------------------------------------------------------------------|
a|---------------------------------------------------------------------|
E|---------------------------------------------------------------------|

and this:

e|-----------7|
h|--7-9-7-9---|
g|------------|
d|------------|
a|------------|
E|------------|

or:

e|--------7|
h|--7--9---|            and repeat it and mabye shange each time....
g|---------|                
d|---------|              SORRY THE BAD ENGLISH I'M NORWEGIAN JUST 13 YEARS OLD!
a|---------|
E|---------|



put in pull-off's and vibratos, hammer-on's etc. as you like.
Comments