Editors - Push Your Head Towards The Air Chords & Tabs

 

Push Your Head Towards The Air Chords & Tabs

Editors Chords & Tabs

Version: 1 Type: Bass Tab

Push Your Head Towards The Air Bass Tab

   
(0:00)
  Em          G            D
G|------------------------|------------------------|
D|------------------------|------------------------|
A|------------------------|------------------------|
E|------------------------|------------------------|



(0:35)
  D                        G           D
G|------------------------|------------------------|
D|------------------------|------------------------|
A|5~----------------------|------------------------|
E|------------------------|------------------------|

  Bm          A            D
G|------------------------|------------------------|
D|------------------------|------------------------|
A|------------------------|------------------------|
E|------------------------|------------------------|



(1:08)
  Em          G            D
G|------------------------|------------------------|
D|------------------------|------------------------|
A|------------------------|5-----------------------|
E|0-----------3-----------|------------------------|



(1:42)
  D                        G           D
G|------------------------|------------------------|
D|------------------------|------------------------|
A|-----------5------------|------------5-----------|
E|2-----------------------|3-----------------------|
[ Tab from: http://www.guitartabs.cc/tabs/e/editors/push_your_head_towards_the_air_btab.html ]
  Bm         A             D
G|------------------------|------------------------|
D|------------------------|------------------------|
A|2----------4------------|5-----------------------|
E|------------------------|------------------------|



(2:16)
  Em            G          D
G|------------------------|------------------------|
D|------------------------|------------------------|
A|------------------------|5-55555-55555-55555-5555|
E|0-00000-00003-33333-3333|------------------------|



(2:50)
  A                        Em
G|------------------------|------------------------|
D|7-7-7-7-7-7-7-7-7-7-5-5-|------------------------|
A|------------------------|7-7-7-7-7-7-7-7-7-7-109-|
E|------------------------|------------------------|

  Bm                       A
G|------------------------|------------------------|
D|------------------------|------------------------|
A|------------------------|------------------------|
E|7-7-7-7-7-7-7-7-7-7-5-3-|5-5-5-5-5-5-5-5-5-5-5-5-|



(3:24)
  D
G|------------------------|
D|------------------------|
A|5-----------------------|
E|------------------------|



(3:28)
  Em          G            D
G|------------------------|------------------------|
D|------------------------|------------------------|
A|------------------------|5-5-5-5-5-5-5-5-5-5-5-5-|
E|0-0-0-0-0-0-3-3-3-3-3-3-|------------------------|



(4:02)
  Em          G            D
G|------------------------|------------------------|
D|------------------------|------------------------|
A|------------------------|5-----------------------|
E|0-----------3-----------|------------------------|