Editors - Munich Chords & Tabs

 

Munich Chords & Tabs

Editors Chords & Tabs

Version: 2 Type: Tab 0 ratings
1 star 2 stars 3 stars 4 stars 5 stars
comments

Munich Tab

Editors - Munich
tabbed by silikium (dedicated to ghali and youssef !!!)


intro : part 1

e ----10-10-10-6-6-6-----------------6-6----------------|
b -------------------8-8-8-6-6-6-8-8--------------------|
g ------------------------------------------------------| x4
d ------------------------------------------------------|
a ------------------------------------------------------|
e ------------------------------------------------------|


intro : part 2

e ----10-----6-----10-----6-----6-----6-----------------|
b -----6-x8--6-x8---6-x8--8-x3--6-x3--8-x2--------------|
g ------------------------------------------------------| x2
d ------------------------------------------------------|
a ------------------------------------------------------|
e ------------------------------------------------------|


verse

e ----10-10---10-10---6-6---6-6-------------------------|
b -----6--6----6--6---6-6---6-6-------------------------|
g ------------------------------------------------------| x4
d ------------------------------------------------------|
a ------------------------------------------------------|
e ------------------------------------------------------|
[ Tab from: http://www.guitartabs.cc/tabs/e/editors/munich_tab_ver_2.html ]
e ----10-10---10-10---6-6---6-6---6-6---6-6---6-6---6-6-|
b -----6--6----6--6---6-6---6-6---8-8---8-8---8-8---8-8-|
g ------------------------------------------------------| x2
d ------------------------------------------------------|
a ------------------------------------------------------|
e ------------------------------------------------------|


chorus

e ----8-/-11-/-15-/-18-/-15-/-11-/-(restart)------------| (fast picked) ; (/=slide)
b ------------------------------------------------------| (listen to the song for the rythm)
g ------------------------------------------------------| x4
d ------------------------------------------------------|
a ------------------------------------------------------|
e ------------------------------------------------------|


bridge

e ---10-10----------------------------------------------|
b ----6--6-x16------------------------------------------|
g ------------------------------------------------------|
d ------------------------------------------------------|
a ------------------------------------------------------|
e ------------------------------------------------------|

e ---6-6------10-10------6-6----------------------------|
b ---8-8-x2----6--6-x2---8-8-x4-------------------------|
g ------------------------------------------------------| x2
d ------------------------------------------------------|
a ------------------------------------------------------|
e ------------------------------------------------------|

order :

intro 1
intro 2
verse
chorus
intro 2
verse
chorus
bridge
chorus
intro 1  x8
ends on the first chord
Comments