Editors - Lights Chords & Tabs

 

Lights Chords & Tabs

Editors Chords & Tabs

Version: 1 Type: Tab 0 ratings
1 star 2 stars 3 stars 4 stars 5 stars
comments

Lights Tab

   
-----------------------------------------------------------------------------
			     Lights - Editors
-----------------------------------------------------------------------------

(00:16)
E|-3-2-|
B|-----|
G|-----|x2
D|-----| 
A|-----|
E|-----|

E|-3-2-3-0--3-2-3-0--3-2-3-0--3-2-3-0--3-2-3-0--3-2-3-0-3-2-3--5|
B|---------------------------------------------------------------|
G|---------------------------------------------------------------|
D|---------------------------------------------------------------| 
A|---------------------------------------------------------------|
E|---------------------------------------------------------------|

E|-12---12-12-|
B|-12---12-12-|
G|------------|
D|------------|x8
A|------------|
E|------------|
[ Tab from: http://www.guitartabs.cc/tabs/e/editors/lights_tab.html ]
E|-3-2-3-0--3-2-3-0--3-2-3-0--3-2-3-0--3-2-3-0--3-2-3-0-3-2-3--5|
B|---------------------------------------------------------------|
G|---------------------------------------------------------------|
D|---------------------------------------------------------------| 
A|---------------------------------------------------------------|
E|---------------------------------------------------------------|

E|-3--2--3--0--2----0-------|
B|---------------3-----0----|
G|--------------------------|
D|--------------------------|x2
A|--------------------------|
E|--------------------------|

E|-12h15h17h19-|
B|-------------|
G|-------------|
D|-------------|(Sticato)
A|-------------|
E|-------------|

E|-12---12-12-|
B|-12---12-12-|
G|------------|
D|------------|x4
A|------------|
E|------------|

E|-3-2-3-0--3-2-3-0--3-2-3-0--3-2-3-0--3-2-3-0--3-2-3-0-3-2-3--5|
B|---------------------------------------------------------------|
G|---------------------------------------------------------------|
D|---------------------------------------------------------------| 
A|---------------------------------------------------------------|
E|---------------------------------------------------------------|

E|-15-14-15-12|           
B|------------|		
G|------------| 		
D|------------|x6 	
E|------------|	


The Editors are an amazing band, the album,'The Back Room' is so good,
I recommed u buy it asap if the editors is your type of music.
Comments