Editors - Find Yourself A Safe Place Chords & Tabs

 

Find Yourself A Safe Place Chords & Tabs

Editors Chords & Tabs

Version: 1 Type: Bass Tab

Find Yourself A Safe Place Bass Tab

   
#----------------------------------PLEASE NOTE---------------------------------#
#This file is the author's own work and represents their interpretation of the #
#song. You may only use this file for private study, scholarship, or research. #
#------------------------------------------------------------------------------##
From: "Bugsan" <>
Editors - Find Yourself A Safe Place, bass tabs
=======================================
Simple song but really nice!!

==============================================
| ================= INTRO ================== |
==============================================
[ Tab from: http://www.guitartabs.cc/tabs/e/editors/find_yourself_a_safe_place_btab.html ]
G||-----------------|-----------------|-----------------|-----------------|
D||-----------------|-------------5-5-|-----------------|---------5-5-4-4-| /----\
A||-7-7-7-7-7-7-7-7-|-7-7-7-7---------|-5-5-5-5-5-5-5-5-|-5-5-5-5---------| | x2 |
E||-----------------|---------7-7-----|-----------------|-----------------| \----/

==============================================
| ================= VERSE ================== |
==============================================

G||-----------------|-------------------|
D||-----------------|-------------------| /----\
A||-7-7-7-7-7-7-7-7-|-7-7-7-7-10-10-9-9-| | x4 |
E||-----------------|-------------------| \----/

==============================================
| ================= CHORUS ================= |
==============================================

G||-----------------|-----------------|-----------------|---------------------|
D||-----------------|-----------------|-----------------|---------------------|
A||-3-3-3-3-3-3-3-3-|-3-3-3-3-3-3-3-3-|-7-7-7-7-7-7-7-7-|-9-9-9-9-10-10-10-10-|
E||-----------------|-----------------|-----------------|---------------------|