Editors - Blood Chords & Tabs

 

Blood Chords & Tabs

Editors Chords & Tabs

Version: 1 Type: Tab 0 ratings
1 star 2 stars 3 stars 4 stars 5 stars
comments

Blood Tab

-------------------------------------------------------------------------------
	Blood - Editors (Snowfield if your a traditionalist)
-------------------------------------------------------------------------------

 I've managed to tab out Chris' guitar (lead) and I've also done Russell's 
bass on a different tab. I'm trying to work out Tom's guitar (chords) at the 
moment and I'll try and post it as soon as I work it out. If anyone else is 
wanting to workout any editors songs (you should they're a great band)
here is a link to a live performance which might help... 

                  http://www.xfm.co.uk/Article.asp?id=101359



Tabbed by: The Middle 8th


GUITAR NUMBER ONE (Chris)
Tuning: Standard (EADGBe)

Intro x4

e|-------9-9-------9-9---------9-9----7-7------------------------------------|
B|--7-7-------7-7--------7-7---------------9-9-------------------------------|
G|---------------------------------------------------------------------------|
D|---------------------------------------------------------------------------|
A|---------------------------------------------------------------------------|
E|---------------------------------------------------------------------------|

NO GUITAR IN FIRST VERSE

After the first verse the intro riff is played again (x4).
The fourth time the riff is played it leads into the verse with a hammer-on...


e|--------9-9---------9-9--------9-9----7-7----------------------------------|
B|--7-7---------7-7--------7-7-----------------9p7h9-------------------------|
G|---------------------------------------------------------------------------|
D|---------------------------------------------------------------------------|
A|---------------------------------------------------------------------------|
E|---------------------------------------------------------------------------|

Verse x2

e|---------------------------------------------------------------------------|
B|--9-----7-----10---------------9----10----7--------------------------------|
G|---------------------------------------------------------------------------|
D|---------------------------------------------------------------------------|
A|---------------------------------------------------------------------------|
E|---------------------------------------------------------------------------|
[ Tab from: http://www.guitartabs.cc/tabs/e/editors/blood_tab.html ]
Pre-Chorus (Tom's chords change but the lead plays the same thing again and again.)
 
e|------9---- play this x16 -------------------------------------------------|
B|------7--------------------------------------------------------------------|
G|---------------------------------------------------------------------------|
D|---------------------------------------------------------------------------|
A|---------------------------------------------------------------------------|
E|---------------------------------------------------------------------------|

 Chorusx4

e|----------9/12--9---12---7---9--9--9--7------------------------------------|
B|---7-------------------------------------9---7-----------------------------|
G|---------------------------------------------------------------------------|
D|---------------------------------------------------------------------------|
A|---------------------------------------------------------------------------|
E|---------------------------------------------------------------------------|

After the Chorus the Intro is played again x4 ending with the hammer and pull
as before.

 Verse Again - Same as the last one. The guitar playing.
 Pre-Chorus and Chorus (both the same as before).

After this chorus a variation of the intro is played (x4)...

e|---------9-9--------9-9-------9-9---9--9-----------------------------------|
B|---7-7---------7-7-------7-7--------7--7-----------------------------------|
G|---------------------------------------------------------------------------|
D|---------------------------------------------------------------------------|
A|---------------------------------------------------------------------------|
E|---------------------------------------------------------------------------|

Next it's the pre-chorus. The lead guitar plays exactly as it did in the last time.

Play the chorus one last time - the usual riff(x4) and finish with this riff...

e|--------9-9--------9-9--------9-9---9--9---playx3--------------------------|
B|--7-7--------7-7--------7-7---------7--7-----------------------------------|
G|---------------------------------------------------------------------------|
D|---------------------------------------------------------------------------|
A|---------------------------------------------------------------------------|
E|---------------------------------------------------------------------------|
 
...then...

e|--------9-9--------9-9-------9-9--9--9\------------------------------------|
B|--7-7---------7-7-------7-7-------7--7\------------------------------------|
G|---------------------------------------------------------------------------|
D|---------------------------------------------------------------------------|
A|---------------------------------------------------------------------------|
E|---------------------------------------------------------------------------|


| /  slide up
| \  slide down
| h  hammer-on             "I'm here all week"
| p  pull-off
| ~  vibrato
| +  harmonic
| x  Mute note
===============================================================================
Comments