Edgewater - Science Of It All Chords & Tabs

 

Science Of It All Chords & Tabs

Edgewater Chords & Tabs

Version: 1 Type: Tab 0 ratings
1 star 2 stars 3 stars 4 stars 5 stars
comments

Science Of It All Tab

   
Edgewater-Science (Of it all)
South of sideways
Track 02

Intro
e|-----------------------------------------------------|
B|-----------------------------------------------------|
G|-----------------------------------------------------|
D|-3-2-0-2--3-2-0-2--3-2-0-2--3-2-0-2-3-5--------------|
A|-3-2-0-2--3-2-0-2--3-2-0-2--3-2-0-2-3-5--x4----------|
D|-3-2-0-2--3-2-0-2--3-2-0-2--3-2-0-2-3-5--------------|

Verse

Pre-chorus
e|----------------|
B|----------------|
G|----------------|
D|-3x-3x-3x-3x----|
A|-3x-3x-3x-3x----|
D|-3x-3x-3x-3x----|

Chorus
e|--------------------------------------------------------------|
B|--------------------------------------------------------------|
G|--9999--7777--------------9999--7777--------------------------|
D|--9999--7777--3333--5555--9999--7777-----3-2-0-2--3-2-0-2-----|
A|--7777--5555--3333--5555--7777--5555-----3-2-0-2--3-2-0-2-----|
D|--------------3333--5555-----------------3-2-0-2--3-2-0-2-----|
[ Tab from: http://www.guitartabs.cc/tabs/e/edgewater/science_of_it_all_tab.html ]
e|----------------------------------------------------------------------------------|
B|----------------------------------------------------------------------------------|-
G|--9999--7777--------------9999--7777----------------------------------------------|
D|--9999--7777--3333--5555--9999--7777-----3-2-0-2--3-2-0-2--3-2-0-2--3-2-0-2-3-5---|
A|--7777--5555--3333--5555--7777--5555-----3-2-0-2--3-2-0-2--3-2-0-2--3-2-0-2-3-5---|
D|--------------3333--5555-----------------3-2-0-2--3-2-0-2--3-2-0-2--3-2-0-2-3-5---|

Verse

Pre-chorus
e|----------------|
B|----------------|
G|----------------|
D|-3x-3x-3x-3x----|
A|-3x-3x-3x-3x----|
D|-3x-3x-3x-3x----|

Chorus
e|--------------------------------------------------------------|
B|--------------------------------------------------------------|
G|--9999--7777--------------9999--7777--------------------------|
D|--9999--7777--3333--5555--9999--7777-----3-2-0-2--3-2-0-2-----|
A|--7777--5555--3333--5555--7777--5555-----3-2-0-2--3-2-0-2-----|
D|--------------3333--5555-----------------3-2-0-2--3-2-0-2-----|

e|---------------------------------------||----------------------------------------------|
B|---------------------------------------||----------------------------------------------|-
G|--9999--7777--------------9999--7777---||----------------------------------------------|
D|--9999--7777--3333--5555--9999--7777---||--3-2-0-2--3-2-0-2--3-2-0-2--3-2-0-2-3-5------|
A|--7777--5555--3333--5555--7777--5555---||--3-2-0-2--3-2-0-2--3-2-0-2--3-2-0-2-3-5--x 2-|
D|--------------3333--5555---------------||--3-2-0-2--3-2-0-2--3-2-0-2--3-2-0-2-3-5------|

e|----------------|
B|----------------|
G|----------------|
D|-2x-2x-2x-2x----|
A|-2x-2x-2x-2x-x 4|
D|-2x-2x-2x-2x----|

e|----------------|
B|----------------|
G|-9x-9x-9x-9x----|
D|-9x-9x-9x-9x-x 4|
A|-7x-7x-7x-7x----|
D|----------------|


Chorus Repeat as needed
Comments