Edge Of Sanity - Blood Of My Enemies Chords & Tabs

 

Blood Of My Enemies Chords & Tabs

Edge Of Sanity Chords & Tabs

Version: 1 Type: Tab 0 ratings
1 star 2 stars 3 stars 4 stars 5 stars
comments

Blood Of My Enemies Tab

Edge of Sanity "Blood of My Enemies"
The Spectral Sorrows
tabbed by: Drew Schinzel 
March 2000

Legend:
-------
~ vibrato

Note: Ok, this is a repetitive song, and it would be reduntant if I were
to include every single chord they play, so I didn't.

Standard tuning

 intro (arranged for one guitar)
|---------------10~---------------14~--|
|---------12-10-------------12-14------|
|--------------------------------------|
|--4--5---------------5--4-------------|
|--4--5---------------5--4-------------|
|--2--3---------------3--2-------------|

lead-in   riff 1
|------|------------------------------|
|------|------------------------------|
|---2--|--4-------------4-------------|
|-4-2--|--4-444-4-4-4---4-444-4-4-4---|
|-4-0--|--2-222-2-2-2---2-222-2-2-2---|
|-2----|----222-2-2-2-----222-2-2-2---|
 For this riff, it helps just hold your fret-hand in the F#/B5 position.
 Remember to mute the hell out of the bottom chords.
[ Tab from: http://www.guitartabs.cc/tabs/e/edge_of_sanity/blood_of_my_enemies_tab.html ]
 fill
|---------------------------|
|---------------------------|
|---------------------------|
|--5--5--5--5--5--5--5------|
|--5--5--5--5--5--5--5------|
|--3--3--3--3--3--3--3------|

 riff 2 (chorus) Timing isn't notated here.. listen to the song.
|-------------------------------------------------|
|-------------------------------------------------|
|----------2--4--2----------4-----4-----4------4--|
|--4-6--7--2--4--2---5--4---4-444-4-444-4-444--4--|
|--2-4--5--0--2--0---5--4---2-222-2-222-2-222--2--|
|--2-4--5------------3--2-----222---222---222-----|

|------------------------------------------------|
|------------------------------------------------|
|----------2--4--------2--4-----4-----4------4---|
|--4-6--7--2--4--4--2--2--4-444-4-444-4-444--4---|
|--2-4--5--0--2--4--2--0--2-222-2-222-2-222--2---|
|--2-4--5--------2--0-------222---222---222------|
 At the end of the chorus, repeat the ending triplet part twice.

For the solo rhythm, listen to the CD - it's mostly the F#/B5 chord
heavily
muted in different triplet patterns, with the riff 1 lead-in occasionally
thrown in.  Also include the G5 fill once or twice.. it's just a
combination
of all the different verse parts, basically.

Finish the song with the G5 fill followed by the riff 1 lead-in and a B5.
Comments