Edge Of Sanity - Black Tears Chords & Tabs

 

Black Tears Chords & Tabs

Edge Of Sanity Chords & Tabs

Version: 1 Type: Tab 0 ratings
1 star 2 stars 3 stars 4 stars 5 stars
comments

Black Tears Tab

   
                         EDGE OF SANITY - BLACK TEARS
                      From the Album Purgatory Afterglow
                     Copyright 1994 Black Mark Production
                          Version 1 - May 1998

Transcribed by: Mathias Wallin
For questions, comments, corrections or newest version please contact Mathias
Wallin at mathias.wallin@kramnet.com

Contains everything but the wacky solo at the end of the song...

This tab made possible by an Elite Member of  s Death Tab!!!
Check out 's web page, with more trancriptions on it:
               

. - palm mute


Tuning: C (drop every string down two steps)


Riff A - 3 times

|-----------------------------------|
|-----------------------------------|
|-12-11-9----9-9---------12-11-9-12-|
|---------12------7-9-7-------------|
|-----------------------------------|
|-----------------------------------|
|
|
|
|-----------------------------------|
|-----------------------------------|
|-----------------------------------|
|-9---------------5-------5---------|
|-7---------------3-------7---------|
|-----------------------------------|


Riff B - 1 time

|------------------------|
|------------------------|
|------------------------|
|-9-7-----9---9-9-7----9-|
|------10-----------10---|
|------------------------|
|
|
|
|------------------------|
|------------------------|
|------------------------|
|-7------------5---------|
|-5------------3---------|
|------------------------|

Repeat Riff A 3 times
Repeat Riff B 1 time

Riff C
[ Tab from: http://www.guitartabs.cc/tabs/e/edge_of_sanity/black_tears_tab.html ]
|----------------------------------------------0------0---|
|------------------------------------------------0------0-|
|---------------------------------------------------------|
|--------4-4-4---------4-4-4---------4-4-4---2------4-----|
|-2-2-2--2-2-2--2-2-2--2-2-2--2-2-2--2-2-2---0------2-----|
|-0-0-0---------0-0-0---------0-0-0-----------------------|
| . . .  . . .  . . .  . . .  . . .  . . .
|
|
|---------------------------------------------------------|
|---------------------------------------------------------|
|---------------------------------------------------------|
|--------4-4-4---------4-4-4---------4-4-4---2------4-----|
|-2-2-2--2-2-2--2-2-2--2-2-2--2-2-2--2-2-2---0------2-----|
|-0-0-0---------0-0-0---------0-0-0-----------------------|
  . . .  . . .  . . .  . . .  . . .  . . .

Repeat Riff A 3 times
Repeat Riff B 1 time
Repeat Riff C 2 times

Riff D - 3 times

|----------------------------|
|----------------------------|
|----------------------------|
|-9-9--7-7--5-5--5-5-5-5-5-5-|
|-7-7--5-5--3-3--3-3-3-3-3-3-|
|----------------------------|
|		     . . . . . .
|
|
|----------------------------|
|----------------------------|
|----------------------------|
|-9-9--7-7--5-5--5-5-5-5-5-5-|
|-7-7--5-5--3-3--3-3-3-3-3-3-|
|----------------------------|
		     . . . . . .

Repeat Riff A 3 times
Repeat Riff B 1 time

Riff E - 1 time

|----------------------|
|----------------------|
|----------------------|
|----------------------|
|-5-5-5-5-5-5-5-5--7-7-|
|-3-3-3-3-3-3-3-3--5-5-|
  . . . . . . . .


Riff F - 2 times

|---------------------------------------------------0------0--|
|----------------------------------------------------0------0-|
|-------------------------------------------------------------|
|--------4-4-8-8---------4-4-8-8---------4-4-8-8---2------4---|
|-2-2-2--2-2-6-6--2-2-2--2-2-6-6--2-2-2--2-2-6-6---0------2---|
|-0-0-0-----------0-0-0-----------0-0-0-----------------------|
| . . .  . . . .  . . .  . . . .  . . .  . . . .
|
|
|-------------------------------------------------------------|
|-------------------------------------------------------------|
|-------------------------------------------------------------|
|--------4-4-8-8---------4-4-8-8---------4-4-8-8---2------4---|
|-2-2-2--2-2-6-6--2-2-2--2-2-6-6--2-2-2--2-2-6-6---0------2---|
|-0-0-0-----------0-0-0-----------0-0-0-----------------------|
| . . .  . . . .  . . .  . . . .  . . .  . . . .


Replay Riff D 3 times
Replay Riff E 1 times
Repeat Riff A 3 times
Repeat Riff B 1 time
Repeat Riff A 3 times
Repeat Riff B 1 time
Repeat Riff A 3 times
Repeat Riff B 1 time
Comments