Edgar Winter Group - Frankenstein Chords & Tabs

 

Frankenstein Chords & Tabs

Edgar Winter Group Chords & Tabs

Version: 2 Type: Tab 0 ratings
1 star 2 stars 3 stars 4 stars 5 stars
comments

Frankenstein Tab

know this is not right but noone has posted a way to play this song yet 
so :P please someone if u know it make the real version

e|-----------------------------------------------------------
b|-----------------------------------------------------------
g|------------------------5^---------------------------------
d|--7--7-7--7-7-7--7-7----5^---7--7-7--7-7-7-----------------
a|--7--7-7--7-7-7--7-7----3^---7--7-7--7-7-7-----------------
e|--5--5-5--5-5-5--5-5---------5--5-5--5-5-5-----------------

[ Tab from: http://www.guitartabs.cc/tabs/e/edgar_winter_group/frankenstein_tab_ver_2.html ]
|------------------------------------------------------------
|------------------------------------------------------------
|--7--7-7--7--7-7--7-----------------------------------------
|--5--5-5--5--5-5--5-----------------------------------------
|------------------------------------------------------------
|------------------------------------------------------------

|------------------------------------------------------------
|------------------------------------------------------------
|-------------------------5^---------------------------------
|---7--7-7--7-7-7--7-7----5^---7--7-7--7-7-7-----------------
|---7--7-7--7-7-7--7-7----3^---7--7-7--7-7-7-----------------
|---5--5-5--5-5-5--5-5---------5--5-5--5-5-5-----------------

|------------------------------------------------------------
|------------------------------------------------------------
|------------------------------------------------------------
|------------------------------------------------------------
|------------------------------------------------------------
|------5/15\5------------------------------------------------
Comments