Eddy Duane - Rebel Rouser Chords & Tabs

 

Rebel Rouser Chords & Tabs

Eddy Duane Chords & Tabs

Version: 3 Type: Tab 0 ratings
1 star 2 stars 3 stars 4 stars 5 stars
comments

Rebel Rouser Tab

Song: Rebel Rouser
Band: Duane Eddy
Tabbed by: SpRiNgWaFfLe [springwaffle@comcast.net]

 Intro
e-----------------------------------
b-----------------------------------
g-----------------------------------
d-------------------------------2---
a-------------0-2-------0---0-4---2-
e-2b--0---0-4-------4-0-------------

e-----------------------------------
b-----------------------------------
g-----------------------------------
d-----------------------------------
a-------------0-2------0-2-2--------
e-2b--0---0-4------0-4--------2b--0-

 Riff 1a
e-------------------------------------
b-------------------------------------
g-------------------------------------
d---------------------------------2---
a-------------0-2--2-----0-0--0-4---2-
e-2b--0---0-4--------4-0--------------

e-----------------------------------
b-----------------------------------
g-----------------------------------
d-----------------------------------
a-------------0-2-------0-2---------
e-2b--0---0-4-------0-4-------2b--0-

 Riff 1b
e------------------------------------
b------------------------------------
g------------------------------------
d--------------------------------2---
a-------------0-2--2-----0---0-4---2-
e-2b--0---0-4--------4-0-------------

e-----------------------------------
b-----------------------------------
g-----------------------------------
d-----------------------------------
a-------------0-2------0-2-2--------
e-2b--0---0-4------0-4--------2b--0-

 Riff 2
e-----------------------------------
b-----------------------------------
g-----------------------------------
d-----------------------------0-3---
a---------0-1-3---3-0---1---1-----3-
e-0-1---1-------------1-------------
[ Tab from: http://www.guitartabs.cc/tabs/e/eddy_duane/rebel_rouser_tab_ver_3.html ]
e-----------------------------------
b-----------------------------------
g-----------------------------------
d-----------------------------------
a-----------0-1-3----0-1-3-3--------
e-3b--1---1--------1----------3b--1-

 Riff 3
e-----------------------------------
b-----------------------------------
g-----------------------------------
d-----------------------------1-4---
a---------1-2-4---4-1---2---2-----4-
e-1-2---2-------------2-------------

e----------------------------------
b----------------------------------
g----------------------------------
d----------------------------------
a-----------1-2-4----1-2-4---------
e-4b--2---2--------2---------4b--2-

 Riff 4a
e-----------------------------------
b-----------------------------------
g-----------------------------------
d-----------------------------2-5---
a---------2-3-5---5-2---3---3-----5-
e-2-3---3-------------3-------------

e----------------------------------
b----------------------------------
g----------------------------------
d----------------------------------
a-----------2-3-5----2-3-5---------
e-5b--3---3--------3---------5b--3-

 Riff 4b
e-------------------------------------
b-------------------------------------
g-------------------------------------
d-------------------------------2-5---
a-----------2-3-5---5-2---3---3-----5-
e-5b--3---3-------------3-------------

e-----------------------------------
b-----------------------------------
g-----------------------------------
d-----------------------------------
a-----------2-3-5----2-3-5-5--------
e-5b--3---3--------3----------5b--3-


It's pretty self-explanitory(sp?):

Intro  
Riff 1a 
Riff 1b 
Riff 2  
Riff 3 
Riff 4a
Riff 4b
Fade out playing Riff 4a or 4b
Comments