Eddie Money - Take Me Home Tonight Chords & Tabs

 

Take Me Home Tonight Chords & Tabs

Eddie Money Chords & Tabs

Version: 1 Type: Tab 1 rating
1 star 2 stars 3 stars 4 stars 5 stars
comments

Take Me Home Tonight Tab

   
Eddie Money - Take me home Tonight
standard tuning E-E

Intro)
---------------------------------------------------------
---------------------------------------------------------
---------------------------Keep repeating this riff------
-----8---8---4---6---------------------------------------
---8---8---4---6-----------------------------------------
-6---6---2---4-------------------------------------------

[ Tab from: http://www.guitartabs.cc/tabs/e/eddie_money/take_me_home_tonight_tab.html ]
Pre-Chorus)  stay on F# 
---------------------------------------------------------
---------------------------------------------------------
---------------------------------------------------------
-4-------4-------4---------------------------------------
-4-------4-------4---------------------------------------
-2-------2-------2---------------------------------------


Chorus)
-----------------------------------------------------------------------------
-----------------------------------------------------------------------------
---6------------------------------------------------------------------------
---6---6---8---4---Repeat that 3 times, end on this---4--
---4---6---8---4----------------------------------------------------4--
-------4---6---2-----------------------------------------------------2--

Take me home tonight!!!!

*That's it, only 2 parts. the Intro is the same as the verse.
and the chorus is played serval times. P.S. crank it up......
Tony - cool@rconnect.com
Comments