Eddie Money - Shakin Chords & Tabs

 

Shakin Chords & Tabs

Eddie Money Chords & Tabs

Version: 2 Type: Tab

Shakin Tab

e|--------------------|---------------|-------------------|-----------|---------------------------|
b|--------------------|---------------|-------------------|-----------|---------------------------|
g|---2-2-2--4---------|---2-2-2--4----|------7------------|--2-2-2--4-|--9b11---------------------|
d|---2-2-2--4---------|---2-2-2--4----|--------9-7h9p7----|--2-2-2--4-|---------------------------|
a|---0-0-0--2---------|---0-0-0--2----|---------------9---|--0-0-0--4-|---------------------------|
e|--------------------|---------------|-------------------|-----------|---------------------------|
                                                                       Realease     
Bend Slowly Hitting note in tempo with the song.

e|--------------------------------------|-------------------------------12b14r10h12p10-----------------|
B|-------------9b11r9-7-----------------|-------------------9b11-9--------------------12---------------|
G|---9b11p7------------9-7-------7------|---9b11-9b11-9-----------9-7----------------------------------|
D|---------h9-------------9/--7h9-7h9---|--------------9p7-----------9---------------------------------|
A|--------------------------------------|--------------------------------------------------------------|
E|--------------------------------------|--------------------------------------------------/Pickslide\-|
Fills for the first and second verse.
[ Tab from: http://www.guitartabs.cc/tabs/e/eddie_money/shakin_tab_ver_2.html ]