Eddie Harris - Freedom Jazz Dance Chords & Tabs

 

Freedom Jazz Dance Chords & Tabs

Eddie Harris Chords & Tabs

Version: 1 Type: Tab 0 ratings
1 star 2 stars 3 stars 4 stars 5 stars
comments

Freedom Jazz Dance Tab

   
                           Freedom Jazz Dance

Here's the whole melody to Freedom Jazz Dance. After the melody is played,
it's just a jam in Bb.Check out the Miles Davis version on the album
Miles Smiles. Enjoy!


           h  q  e  e       e  e   e   e   e  e  e  e     e  e  e  e    
E-------|--r--r--------||------------------------------|----------------
B-------|--e--e--------||------------------------------|----------------
G---4:--|--s--s--------||*--8--12------10--7-----------|-----8-----6----
D---4:--|--t--t-----8--||*---------10---------8--------|--8-----6-------
A-------|--------8-----||------------------------8--6--|----------------
E-------|--------------||------------------------------|----------------
                                                                        

    q  q     w     w     e     e  e   e   e   e  e  e      e  e  e      
E------r--|--r--|--r--|--r------------------------------|---------------
B------e--|--e--|--e--|--e------------------------------|---------------
G------s--|--s--|--s--|--s--------10-------------8------|--6------------
D---8--t--|--t--|--t--|--t-----8------10--11--8-----10--|-----6---------
A---------|-----|-----|---------------------------------|--------6------
E---------|-----|-----|---------------------------------|---------------
                                                                        

    e  q  q     w     h  q  e  e     e  e  e  e     e  e  e  e     e    
E---------r--|--r--|--r--r--r-----|-----------------------------|-------
B---------e--|--e--|--e--e--e-----|-----------------------------|-------
G---------s--|--s--|--s--s--s-----|-----------8-----6--------9--|--7----
D---------t--|--t--|--t--t--t-----|--6-----8--------------9-----|-------
A------8-----|-----|-----------8--|-----8--------------9--------|-------
E---6--------|-----|--------------|-----------------------------|-------
                                                                        
[ Tab from: http://www.guitartabs.cc/tabs/e/eddie_harris/freedom_jazz_dance_tab.html ]
    e  e   e   e  e  e  e     e  e  e  e  e  e  e  e     q  e^ e^ e^    
E--------------------------|--------------------------|-----------------
B--------------------------|-----------------------7--|--8--------------
G--------------------------|--------------------6-----|-----5-----------
D---7------10--8--9--------|--------8--------6--------|--------8--6-----
A------10------------9-----|-----8-----8--6-----------|-----------------
E-----------------------9--|--8-----------------------|-----------------
                                                                        

    q  q      w     w     w     h  q  e  e                              
E----------|--r--|--r--|--r--|--r--r---------||-------------------------
B------14--|--e--|--e--|--e--|--e--e---------||-------------------------
G------13--|--s--|--s--|--s--|--s--s--------*||-------------------------
D---8--12--|--t--|--t--|--t--|--t--t-----8--*||-------------------------
A------13--|-----|-----|-----|--------8------||-------------------------
E----------|-----|-----|-----|---------------||-------------------------
                                                                        



========================================================================
==                       TABLATURE EXPLANATION                        ==
========================================================================

----------                ----------                ----t---
----5h8--- Hammeron       ----(8)--- Ghost          ----6--- Tap
----------                ---------- Note           --------
----5p8--- Pulloff        ----------                --------

----------                ----------                -----p--
----5/8--- Slide Up       -----x---- Dead           -----7-- Pop
----------                ---------- Note           --s-----
----5\8--- Slide Down     ----------                --5----- Slap 

----------                ||------|| Repeat         --------
----5~~~-- Vibrato        ||*----*||                ---5^--- Bend
----------                ||*----*||                --------
----------                ||------||                --------

----------                ----------                --------
-4:------- Time           ----------                --------
-4:------- Signature      ----------                --------
----------                ----------                --------

Rhythm:
  w = whole note            W = dotted whole
  h = half note             H = dotted half
  q = quarter note          Q = dotted quarter
  e = eighth note           E = dotted eighth
  s = sixteenth note        S = dotted sixteenth
  t = 32nd note             T = dotted 32nd
  x = 64th note             X = dotted 64th
  ^ = triplet
Comments