Ed Sutton Band - Steppin On It Chords & Tabs

 

Steppin On It Chords & Tabs

Ed Sutton Band Chords & Tabs

Version: 1 Type: Tab 0 ratings
1 star 2 stars 3 stars 4 stars 5 stars
comments

Steppin On It Tab

   
-----------------------------------------------------------
        	STEPPIN ON IT:  Ed Sutton Band
-------------------------------------------------------------------------------
Tabbed by:  Edo
Email: edwheeler@earthlink.net

The first three riffs make up the rhythm of the song. Can be played slow or fast but in a SRV style. 

Riff 1  (2x)
e|--------------------------------------------------------|
B|--------------------------------------------------------|
G|--------------------------------------------------------|
D|----------------------~5-5--7-p5--4--5--p4--2--4-p2--0-|
A|-x0-x0-x4-p0-x5-p0-x7-----------------------------------|
E|--------------------------------------------------------|


Riff 2
e|--------------------------------------------------------|
B|--------------------------------------------------------|
G|----------------------~5-5--7--p5--4--5--p4-2--4-p2--0-|
D|-x0-x0-x4-p0-x5-p0-x7-----------------------------------|
A|--------------------------------------------------------|
E|--------------------------------------------------------|

Riff 1

Riff 3 
e|--------------------------------------------------------|
B|--------------------------------------------------------|
G|--------------------------------------------------------|
D|--------------------------------------------------------|
A|----------------------~5-5--7--p5--4--5--p4--2--4-p2--0|
E|-x0-x0-x4-p0-x5-p0-x7-----------------------------------|


e|--------------------------------------------------------|
B|--------------------------------------------------------|
G|-----------------------------------7b9--7--p5-----5-----|
D|-------------------------------5---------------7--------|
A|----x0--x0--x4-p0--x5--p0--x7---------------------------|
E|--------------------------------------------------------|




Lead line over above riffs
e|--------------------------------------------------------|
B|-8--10-10--10-10--10-10--10-10-p8--8--------------------|
G|----------------------------------9--9-7-9-p7-5--7-5----|
D|-----------------------------------------------------7--|
A|--------------------------------------------------------|
E|--------------------------------------------------------|

e|--------------------------------------------------------|
B|--------------------------------------------------------|
G|-5--7-7--7-7--7-7--7-7-p5----5--------------------------|
D|--------------------------7----7--5--7--p5----5---------|
A|-------------------------------------------7----7--5----|
E|--------------------------------------------------------|
[ Tab from: http://www.guitartabs.cc/tabs/e/ed_sutton_band/steppin_on_it_tab.html ]
e|--------------------------------------------------------|
B|--------------------------------------------------------|
G|--------------------------------------------------------|
D|--------------------------------------------------------|
A|-5--6-p5---5--6-p5---5--6--p5-----5-/3-----3--5-6-7-----|
E|---------8---------8----------8--------3----------------|

e|--------------------------------------------------------|
b|--------------------------------------------------------|
g|-----------7b9-7-----5----------------------------------|
d|-5---5--7---------7----7--------------------------------|
a|---7----------------------------------------------------|
E|--------------------------------------------------------|

e|------------------------5-------------------------------|
b|----------------------5---8--p5---5---------------------|
g|-7-5-/6---------7b9-------------7---77-5----------------|
d|--------7-5-7----------------------------7--------------|
a|--------------------------------------------------------|
E|--------------------------------------------------------|

e|-----------------------5--------------------------------|
b|---------------------5---8--p5---5--/8-10-10--10-10--10-|
g|-7-5-/6---------7b9-------------7-----------------------|
d|--------7-5-7-------------------------------------------|
a|--------------------------------------------------------|
E|--------------------------------------------------------|

e|----------------10-p8-----8-----------------------------|
b|-10-10--10-10---------10-----10-p8--10--8---------------|
g|-------------------------------------------9--7---------|
d|--------------------------------------------------------|
a|--------------------------------------------------------|
E|--------------------------------------------------------|

e|--------------------------------------------------------|
b|--------------------------------------------------------|
g|-9-p7--5--7-5----5--------------------------------------|
d|--------------7-----7--5--7--5-------------------5------|
a|-------------------------------7--7--7--7--5--7---------|
E|--------------------------------------------------------|


e|--------------------------------------------------------|
b|--------------------------------------------------------|
g|-7(9)-----5---------------------------------------------|
d|-------------~7(hold)-----------------------------------|
a|--------------------------------------------------------|
E|--------------------------------------------------------|


Basically just improvise after this.

| /  slide up
|   slide down
| h  hammer-on
| p  pull-off
| ~  vibrato
| +  harmonic
| x  Mute note
===============================================================================
Comments