Ed Sheeran - Autumn Leaves Chords & Tabs

 

Autumn Leaves Chords & Tabs

Ed Sheeran Chords & Tabs

Version: 1 Type: Tab 0 ratings
1 star 2 stars 3 stars 4 stars 5 stars
comments

Autumn Leaves Tab

   
Absolutely LOVE this song :) hope its ok, its pretty easy when you get the hang of it (:

*original - CAPO 2 :) but you can play at CAPO 4*

Enjoy!



Intro/Interlude:

e|-------------||-------------||-------------||-------------|
B|------3------||------3------||------3------||------3------|
G|---0-----0---||---0-----0---||---0-----0---||---0-----0---|
D|-------------||-------------||-------------||-------------|
A|2------------||-------------||-------------||3------------|
E|-------------||2------------||3------------||-------------|


Verse:

e|-------------||-------------||-------------||-------------|
B|------3------||------3------||------3------||------3------|
G|---0-----0---||---0-----0---||---0-----0---||---0-----0---|
D|-------------||-------------||-------------||-------------|
A|2------------||-------------||-------------||3------------|
E|-------------||2------------||3------------||-------------| X4

e|-------------|        e|-------------|
B|------3------|        B|------3------|
G|---0-----0---|        G|2--0-----0---|
D|-------------|        D|-------------|
A|2------------|        A|-------------|
E|-------------| X2     E|-------------|


Chorus:

e|-------------||-------------||-------------||-------------|
B|------3------||------3------||------3------||------3------|
G|---0-----0---||---0-----0---||---0-----0---||---0-----0---|
D|-------------||-------------||-------------||-------------|
A|-------------||-------------||2------------||3------------|
E|3------------||2------------||-------------||-------------| X4


Interlude:

e|-------------||-------------||-------------||-------------|
B|------3------||------3------||------3------||------3------|
G|---0-----0---||---0-----0---||---0-----0---||---0-----0---|
D|-------------||-------------||-------------||-------------|
A|2------------||-------------||-------------||3------------|
E|-------------||2------------||3------------||-------------|



Verse:

e|-------------||-------------||-------------||-------------|
B|------3------||------3------||------3------||------3------|
G|---0-----0---||---0-----0---||---0-----0---||---0-----0---|
D|-------------||-------------||-------------||-------------|
A|2------------||-------------||-------------||3------------|
E|-------------||2------------||3------------||-------------| X4
[ Tab from: http://www.guitartabs.cc/tabs/e/ed_sheeran/autumn_leaves_tab.html ]
e|-------------|        e|-------------|
B|------3------|        B|------3------|
G|---0-----0---|        G|2--0-----0---|
D|-------------|        D|-------------|
A|2------------|        A|-------------|
E|-------------| X2     E|-------------|




Chorus:

e|-------------||-------------||-------------||-------------|
B|------3------||------3------||------3------||------3------|
G|---0-----0---||---0-----0---||---0-----0---||---0-----0---|
D|-------------||-------------||-------------||-------------|
A|-------------||-------------||2------------||3------------|
E|3------------||2------------||-------------||-------------| X4



Verse (slightly different to the others):


e|-------------||-------------||-------------||-------------|
B|------3------||------3------||------3------||------3------|
G|---0-----0---||---0-----0---||---0-----0---||2--0-----0---|
D|2------------||-------------||-------------||-------------|
A|-------------||2------------||-------------||-------------|
E|-------------||-------------||3------------||-------------| X2


Chorus:

e|-------------||-------------||-------------||-------------|
B|------3------||------3------||------3------||------3------|
G|---0-----0---||---0-----0---||---0-----0---||---0-----0---|
D|-------------||-------------||-------------||-------------|
A|-------------||-------------||2------------||3------------|
E|3------------||2------------||-------------||-------------| X8


Bridge:

e|-------------||-------------||-------------|
B|------3------||------3------||------3------|
G|---0-----0---||---0-----0---||---0-----0---|
D|-------------||-------------||-------------|
A|2------------||-------------||-------------|
E|-------------||3------------||2------------| X2


Ending Chorus:

e|-------------||-------------||-------------||-------------|
B|------3------||------3------||------3------||------3------|
G|---0-----0---||---0-----0---||---0-----0---||---0-----0---|
D|-------------||-------------||-------------||-------------|
A|-------------||-------------||2------------||3------------|
E|3------------||2------------||-------------||-------------| X2


		   (D)		     (G)
e|-------------||2------------||3------------|
B|------3------||3------------||3------------|
G|---0-----0---||2------------||0------------|
D|-------------||0------------||0------------|
A|-------------||-------------||2------------|
E|3------------||-------------||3------------|



END
Comments