Ed Buckets Revenge - Boot Camp Chords & Tabs

 

Boot Camp Chords & Tabs

Ed Buckets Revenge Chords & Tabs

Version: 1 Type: Tab 0 ratings
1 star 2 stars 3 stars 4 stars 5 stars
comments

Boot Camp Tab

   
All Lyrics and Tablature (c)2000

Boot Camp by Ed Bucket's Revenge
Off the album Maximum PSI (Pokern Records)

Key:	^ Bend
	~ Vibrato
	h Hammer on
	p Pull off
	/ Slide up
	\ Slide down
	x Muted strings
	\  / Tremelo Dips
	 \/

Standard Tuning (E,A,D,G,B,E)

Intro/Verse (Clean) Gtr. 1

e---------------------------------|
B---------------------------------|
G---------------------------------|
D-2-22-2/5--5-5-xx-2-22-5-3-------|
A-2-22-2/5--5-5-xx-2-22-----5\3p0-|
E-0-00-0/3--3-3-xx-0-00-----------|

Chorus (Distortion) Gtr. 1&2

e----------------------------|
B----------------------------|
G-5-5-5555/7-7-77/9-Let Ring-|
D-5-5-5555/7-7-77/9-Let Ring-|
A-3-3-3333/5-5-55/7-Let Ring-|
E----------------------------|

Solo (Distortion w/ Wah) Gtr. 2, Gtr. 1 plays Chorus

e-15^-15^-12h15p12--12--------------------------------------------------|
B-----------------15--15~-12h15p12--12----------------------------------|
G---------------------------------14--14-12h14p12--12~~-----------------|
D------------------------------------------------14^------12-14^-12~12~-|
A------------------------------------------------------/14--------------|
E-----------------------------------------------------------------------|
[ Tab from: http://www.guitartabs.cc/tabs/e/ed_buckets_revenge/boot_camp_tab.html ]
e--------------------------------------------------------------12p14p15^|
B----------------------------------------------------15^15^-/15---------|
G--------------------12-14^14p12--14p12--14p12--14p12-------------------|
D------12-------12-14-----------14-----14-----14------------------------|
A-12-14--14~-/14--------------------------------------------------------|
E-----------------------------------------------------------------------|

e-15p14p12-15^-15p14p12-15^-15p14p12-15^-15p14p12-15^-18p17p15-18^-18p17|
B-----------------------------------------------------------------------|
G-----------------------------------------------------------------------|
D-----------------------------------------------------------------------|
A-----------------------------------------------------------------------|
E-----------------------------------------------------------------------|

e-p15-18^-18p17p15-18^-18p17p15-18^-22p21p19-22p21p19-24^-\  /-\  /-\  /|
B----------------------------------------------------------\/---\/---\/-|
G-----------------------------------------------------------------------|
D-----------------------------------------------------------------------|
A-----------------------------------------------------------------------|
E-----------------------------------------------------------------------|

Song Order:
Intro
Verse
Chorus
Verse
Chorus
Verse
Chorus
Solo (w/ Chorus)
Chorus
Ending (Verse)

Lyrics:

Is your teen out of control?
Does he talk about selling his soul?
Don't worry, Sally will take care
She has red glasses, And red hair

Chorus: Daytime TV, There is nothing here for me
	There's gotta be some place, better to be
	Then daytime TV

Send you to boot camp, show you what it's like to be a tramp
I hate myself and I'm overweight
The problem is I just can't get a date

Chorus

Can't somebody help me? Isn't anybody there?
Turn on Montel and Jenny and Jerry 'cause they care
Can't somebody help me? Isn't anybody there?
Turn on Montel and Jenny and Jerry 'cause they care

Chorus

During Solo: Sir, Yes Sir! Yes Sir, Drill Sergeant!

Chorus

Ending: There is nothing here for me
Comments